Guitar Tabs, Chords and Lyrics
Major upgrade!! After one year development the new version of Chordie is now online! Please give feedback.


Portobello Belle  Dire Straits

 
 -------------------------------------------------------------------------------

PORTOBELLO BELLE - Dire straits
 
 -------------------------------------------------------------------------------

Tabbed by: metallhead
Email: homesticky@gmail.com
Tuning: E A D G
Gtr I (E A D G) - 'Bass'
Q=100
[4/4] Gtr I
W W W W
 
 |----------|----------|----------|------|
 |----------|----------|----------|------|
 |----------|----------|----------|------|
 |----------|----------|----------|------|

W W W W
 
 |----------|----------|----------|------|
 |----------|----------|----------|------|
 |----------|----------|----------|------|
 |----------|----------|----------|------|

W W H Q Q Q Q E E E E
 
 |----------|----------|---------5--|---------5-5-5-|
 |----------|----------|------------|-3--3--3-------|
 |----------|----------|------------|---------------|
 |----------|----------|------------|---------------|

E E E E E E E E Q Q E E E E E E E E E E E E Q Q E E E E
 
 |-5-5-5-5-5-5-----|---------5-5-5-|-5-5-5-5-5-5-----|---------5-5-5-|
 |-------------3-3-|-3--3--3-------|-------------3-3-|-3--3--3-------|
 |-----------------|---------------|-----------------|---------------|
 |-----------------|---------------|-----------------|---------------|

E E E E E E E E Q Q E E E E E E E E E E E E E E E E E E E E
 
 |-5-5-5-5-5-5-----|---------5-5-5-|-----------------|-------------5-5-|
 |-------------3-3-|-3--3--3-------|-3-3-3-3-3-3-3-3-|-3-3-3-3-3-3-----|
 |-----------------|---------------|-----------------|-----------------|
 |-----------------|---------------|-----------------|-----------------|

[E] [E] [E] [E] [E] [E] [E] [E] [E] [E] [E] [E] [E] [E] [E] [E] [E] [E] [E] [E] [E] [E] [E] [E] [E] [E] [E] [E] [E] [E] [E] [E]  
 
 |-5-5-5-5-5-5-5-5-|-5-5-5-5---------|-----------------|-----5-5-5-5-5-5-|
 |-----------------|---------3-3-3-3-|-3-3-3-3-3-3-3-3-|-3-3-------------|
 |-----------------|-----------------|-----------------|-----------------|
 |-----------------|-----------------|-----------------|-----------------|

E E E E E E E E Q Q Q E E E E E E E E E E E E E E E E E E
 
 |-3-3-3-3-3-3-----|----------5-5-|-5-5-5-5-5-5-5-5-|-3-3-3-3-3-3-----|
 |-------------3-3-|-3--3--3------|-----------------|-------------3-3-|
 |-----------------|--------------|-----------------|-----------------|
 |-----------------|--------------|-----------------|-----------------|

Q Q Q E E E E E E E E E E E E E E E E E E W
 
 |----------5-5-|-5-5-5-5-5-5-5-5-|-5-5-5-5-5-5-5-5-|------|
 |-3--3--3------|-----------------|-----------------|------|
 |--------------|-----------------|-----------------|------|
 |--------------|-----------------|-----------------|------|

W W W W
 
 |----------|----------|----------|------|
 |----------|----------|----------|------|
 |----------|----------|----------|------|
 |----------|----------|----------|------|

W W W H Q Q
 
 |----------|----------|----------|---------5--|
 |----------|----------|----------|------------|
 |----------|----------|----------|------------|
 |----------|----------|----------|------------|

Q Q E E E E E E E E E E E E Q Q E E E E E E E E E E E E
 
 |---------5-5-5-|-5-5-5-5-5-5-----|---------5-5-5-|-5-5-5-5-5-5-----|
 |-3--3--3-------|-------------3-3-|-3--3--3-------|-------------3-3-|
 |---------------|-----------------|---------------|-----------------|
 |---------------|-----------------|---------------|-----------------|

Q Q E E E E E E E E E E E E Q Q E E E E E E E E E E E E
 
 |---------5-5-5-|-5-5-5-5-5-5-----|---------5-5-5-|-----------------|
 |-3--3--3-------|-------------3-3-|-3--3--3-------|-3-3-3-3-3-3-3-3-|
 |---------------|-----------------|---------------|-----------------|
 |---------------|-----------------|---------------|-----------------|

[E] [E] [E] [E] [E] [E] [E] [E] [E] [E] [E] [E] [E] [E] [E] [E] [E] [E] [E] [E] [E] [E] [E] [E] [E] [E] [E] [E] [E] [E] [E] [E]  
 
 |-------------5-5-|-5-5-5-5-5-5-5-5-|-5-5-5-5---------|-----------------|
 |-3-3-3-3-3-3-----|-----------------|---------3-3-3-3-|-3-3-3-3-3-3-3-3-|
 |-----------------|-----------------|-----------------|-----------------|
 |-----------------|-----------------|-----------------|-----------------|

E E E E E E E E E E E E E E E E Q Q Q E E E E E E E E E E
 
 |-----5-5-5-5-5-5-|-3-3-3-3-3-3-----|----------5-5-|-5-5-5-5-5-5-5-5-|
 |-3-3-------------|-------------3-3-|-3--3--3------|-----------------|
 |-----------------|-----------------|--------------|-----------------|
 |-----------------|-----------------|--------------|-----------------|

E E E E E E E E W E E E E E E E E E E E E E E E E
 
 |-3-3-3-3-3-3-----|----------|-5-5-5-5-5-5-5-5-|-5-5-5-5-5-5-5-5-|
 |-------------3-3-|-3--------|-----------------|-----------------|
 |-----------------|----------|-----------------|-----------------|
 |-----------------|----------|-----------------|-----------------|

W W W W
 
 |----------|----------|----------|------|
 |----------|----------|----------|------|
 |----------|----------|----------|------|
 |----------|----------|----------|------|

W W W W
 
 |----------|----------|----------|------|
 |----------|----------|----------|------|
 |----------|----------|----------|------|
 |----------|----------|----------|------|

H Q Q Q Q E E E E E E E E E E E E Q Q E E E E
 
 |---------5--|---------5-5-5-|-5-5-5-5-5-5-----|---------5-5-5-|
 |------------|-3--3--3-------|-------------3-3-|-3--3--3-------|
 |------------|---------------|-----------------|---------------|
 |------------|---------------|-----------------|---------------|

E E E E E E E E Q Q E E E E E E E E E E E E Q Q E E E E
 
 |-5-5-5-5-5-5-----|---------5-5-5-|-5-5-5-5-5-5-----|---------5-5-5-|
 |-------------3-3-|-3--3--3-------|-------------3-3-|-3--3--3-------|
 |-----------------|---------------|-----------------|---------------|
 |-----------------|---------------|-----------------|---------------|

[E] [E] [E] [E] [E] [E] [E] [E] [E] [E] [E] [E] [E] [E] [E] [E] [E] [E] [E] [E] [E] [E] [E] [E] [E] [E] [E] [E] [E] [E] [E] [E]  
 
 |-----------------|-------------5-5-|-5-5-5-5-5-5-5-5-|-5-5-5-5---------|
 |-3-3-3-3-3-3-3-3-|-3-3-3-3-3-3-----|-----------------|---------3-3-3-3-|
 |-----------------|-----------------|-----------------|-----------------|
 |-----------------|-----------------|-----------------|-----------------|

E E E E E E E E E E E E E E E E E E E E E E E E Q Q Q E E
 
 |-----------------|-----5-5-5-5-5-5-|-3-3-3-3-3-3-----|----------5-5-|
 |-3-3-3-3-3-3-3-3-|-3-3-------------|-------------3-3-|-3--3--3------|
 |-----------------|-----------------|-----------------|--------------|
 |-----------------|-----------------|-----------------|--------------|

E E E E E E E E E E E E E E E E Q Q Q E E E E E E E E E E
 
 |-5-5-5-5-5-5-5-5-|-3-3-3-3-3-3-----|----------5-5-|-5-5-5-5-5-5-5-5-|
 |-----------------|-------------3-3-|-3--3--3------|-----------------|
 |-----------------|-----------------|--------------|-----------------|
 |-----------------|-----------------|--------------|-----------------|

E E E E E E E E E E E E E E E E Q Q E E E E E E E E E E E E
 
 |-5-5-5-5-5-5-5-5-|-5-5-5-5-5-5-----|---------5-5-5-|-5-5-5-5-5-5-----|
 |-----------------|-------------3-3-|-3--3--3-------|-------------3-3-|
 |-----------------|-----------------|---------------|-----------------|
 |-----------------|-----------------|---------------|-----------------|

Q Q E E E E E E E E E E E E Q Q E E E E E E E E E E E E
 
 |---------5-5-5-|-5-5-5-5-5-5-----|---------5-5-5-|-5-5-5-5-5-5-----|
 |-3--3--3-------|-------------3-3-|-3--3--3-------|-------------3-3-|
 |---------------|-----------------|---------------|-----------------|
 |---------------|-----------------|---------------|-----------------|

Q Q E E E E E E E E E E E E Q Q E E E E E E E E E E Q
 
 |---------5-5-5-|-5-5-5-5-5-5-----|---------5-5-5-|-5-5-5-5-5-5-5--|
 |-3--3--3-------|-------------3-3-|-3--3--3-------|----------------|
 |---------------|-----------------|---------------|----------------|
 |---------------|-----------------|---------------|----------------|

Q Q E E E E E E E E E E E E Q Q E E E E E E E E E E E E
 
 |---------5-5-5-|-5-5-5-5-5-5-----|---------5-5-5-|-5-5-5-5-5-5-----|
 |-3--3--3-------|-------------3-3-|-3--3--3-------|-------------3-3-|
 |---------------|-----------------|---------------|-----------------|
 |---------------|-----------------|---------------|-----------------|

Q Q E E E E
 
 |---------5-5-5----*|
 |-3--3--3----------*|
 |------------------*|
 |------------------*|

Duration Legend
 
 ---------------
 W - whole; H - half; Q - quarter; E - 8th; S - 16th; T - 32nd; X - 64th; a - acciaccatura

+ - note tied to previous; . - note dotted; .. - note double dotted
Uncapitalized letters represent notes that are staccato (1/2 duration)
Irregular groupings are notated above the duration line
Duration letters will always appear directly above the note/fret number it represents the
duration for. Duration letters with no fret number below them represent rests. Multi-
bar rests are notated in the form Wxn, where n is the number of bars to rest for. Low
melody durations appear below the staff
Tablature Legend
 
 ----------------

h - hammer-on
p - pull-off
b - bend
pb - pre-bend
r - bend release (if no number after the r, then release immediately)
/\ - slide into or out of (from/to "nowhere")
s - legato slide
S - shift slide
- natural harmonic
(n) - artificial harmonic
n(n) - tapped harmonic
~ - vibrato
tr - trill
T - tap
TP - trem. picking
PM - palm muting
\n/ - tremolo bar dip; n = amount to dip
\n - tremolo bar down
n/ - tremolo bar up
/n\ - tremolo bar inverted dip
= - hold bend; also acts as connecting device for hammers/pulls
- volume swell (louder/softer)
x - on rhythm slash represents muted slash
o - on rhythm slash represents single note slash
Misc Legend
 
 -----------

| - bar
|| - double bar
||o - repeat start
o|| - repeat end
*| - double bar (ending)
: - bar (freetime)
$ - Segno
& - Coda
Tempo markers - = BPM(8/16=s8/s16), where s8 = swing 8ths, s16 = swing 16ths

Important: The song above is NOT stored on the Chordie server. The original song is hosted at www.guitartabs.cc. Chordie works as a search engine and provides on-the-fly formatting. Chordie does not index songs against artists'/composers' will. To remove this song please click here.

Text color:
Chord color:
Chord grids: 
Font size:    
Page size: 

E
Rate #2 of 3 versions

Login - add to songbook

SHARE PAGE  




You need to log in to post comments