Guitar Tabs, Chords and Lyrics
Major upgrade!! After one year development the new version of Chordie is now online! Please give feedback.


Private Investigations  Dire Straits

Private Investigations - Dire Straits
Tabbed by Gerco de Haan
gt.dehaan@lycosmail.com
http://guitararchive.come.to
Chords used:
Em 022000
Em/D xx0000
Bm x24432
A x02220
G 320003
F/A x03211
B7 x21202
Edim xx2323
Am/6 x04210
Am6/C x34210
C x32010
Em6 022020
Em7 022030
Em9 022002
[Em] [Em/D] [Bm] [A] [G] [F/A] [B7] [G] [Edim] [Am6]  
 
 |------------|---------------|-----------------|-------------------|--------------------|
 |---8--------|-----------8---|---8/12---8-8/10-|-10p8h10---10/12-8-|-------8-7-5/10-----|
 |-----9-9/11-|-11p9h11-----9-|-7---------------|-------------------|-----6----------9-9-|
 |-9----------|---------------|-----------------|-------------------|---8----------------|
 |------------|---------------|-----------------|-------------------|-7------------------|
 |------------|---------------|-----------------|-------------------|--------------------|

[B7] [Em] [Em/D] [Bm] [A] [G] [F/A] [B7]  
 
 |----------||---7-----|---7----|--------|-------|-------------|-----------------|
 |-/7-7-8---||-8---8-7-|-7------|-7-10---|---8---|---8---7/6---|-6-5-4-------5---|
 |--------9-||---------|--------|------9-|-9---7-|-7---7-----5-|---------4-4---4-|
 |----------||---------|--------|--------|-------|-------------|-----------------|
 |----------||---------|--------|--------|-------|-------------|-----------------|
 |----------||---------|--------|--------|-------|-------------|-----------------|

[G] [Edim] [Am6] [B7] [Em]  
 
 |------------|---------------|----------------------|-----------------------|-------------||
 |------------|-------------8-|-------------------10-|-----------------------|-------------||
 |-{12-11-9---|-----6---------|---------9------------|-----------------------|-------------||
 |-}12--------|---8---8---8---|-10---10---10---10----|-{9-10-9-10-9-7--------|-----5-------||
 |-.10--------|-7-------7-----|----9---------9-------|-}9-------------10-9-7-|-5h7---5h7---||
 |------------|---------------|----------------------|-.7--------------------|-------------||

[Em/D] [Bm] [A] [G] [F/A] [B7]  
 
 ||---7---|---7-------7---7-|---7-------5---|-3-----3---3-----|-----------------------5-|
 ||-8-----|-7---7---7---7---|-7---7-7-8---5-|---3-3---3---7-6-|-5-4---------------4-----|
 ||-------|-----------------|---------------|-----------------|---------4h5p4---4-------|
 ||-------|-----------------|---------------|-----------------|-------4-------4-----4---|
 ||-------|-----------------|---------------|-----------------|-------------------------|
 ||-------|-----------------|---------------|-----------------|-------------------------|

[G] [Edim] [Am6/C] [B7] [Em] [D] [G]  
 
 |-------0---3-----|-----------0-3-|-------------5-|---------------||------------------|
 |-----0---0-----0-|-------2-------|-------5---5---|---------------||---------------12-|
 |---0-------------|-----3---3-----|-----5---5-----|-4-5-4-5-4-----||---9-12-9---12----|
 |-----------------|---2-----------|---5-----------|-----------5---||-9--------9-------|
 |-----------------|---------------|-3-------------|-------------7-||------------------|
 |-3---------------|-3-------------|---------------|---------------||------------------|

[D] [C] [pianoEm]....] [D] [G] [D]
 
 |-----------------|---------------------|-0---0---|---------------------|------------------|
 |-{8-7-8-10-8p7---|-{7-8-7-8-10-----7---|-1---0---|--------12-10-8----8-|-8----8-10-8------|
 |-}7------------7-|-}7----------9-7---9-|-0---0---|---9-12---------11---|---11--------11-7-|
 |-.9--------------|-.7------------------|-2---2---|-9-------------------|------------------|
 |-----------------|---------------------|-3---2---|---------------------|------------------|
 |-----------------|---------------------|-----0---|---------------------|------------------|

[C] [B7] [Em/D] [Bm] [A] [G]  
 
 |----------||--------------|---------------------------|-------10----10---------------------|
 |----------||-----8--------|---------------------------|----10----12----12-10---------------|
 |----------||-------9-9/11-|-11-11-11/12-11-9----9-7/9-|----------------------12-11---------|
 |----------||---9----------|------------------12-------|-12-------------------------12-10-9-|
 |----------||--------------|---------------------------|------------------------------------|
 |----------||--------------|---------------------------|------------------------------------|

[ Tab from: bttp://www.guitartabs.cc/tabs/d/dire_straits/private_investigations_tab_ver_2.btml ] 
[F/A] [B7] [G]  
 
 |-----------------------|----------------------------------------------------|
 |-10\9------------------|------------10-13-12-10-----------------------------|
 |------10\9----10-------|-------9-11-------------12-11-12p11-9---------------|
 |-----------12----------|--------------------------------------12-10-9-------|
 |-----------------12-8\-|-13\12----------------------------------------12-10-|
 |-----------------------|----------------------------------------------------|

[Edim] [Am6]  
 
 |-------------------|---------------------------|-------------------|
 |-------------------|-{11-10--------------------|-{10-12-13-12-10---|
 |------11-12-11-9-9-|-}12----12-9---------------|-}11-------------9-|
 |-9-12--------------|-.11---------11------------|-. 9---------------|
 |-------------------|----------------13-10-9-10-|-------------------|
 |-------------------|---------------------------|-------------------|

[B7] [Em] [Edim] [Am6] [B7]  
 
 |--------------------------------------|------|-------5-|-------||
 |--------------------------------------|------|---------|-------||
 |-{4-5-4-5p4---------------------------|------|-----5---|-{4----||
 |-.4---------7-5p4---4/5p4-------5p4---|-8----|---4-----|-.4----||
 |------------------7-------7p5h7-----7-|-7----|-3-------|-------||
 |--------------------------------------|------|---------|-------||

[Em6] [Em]  
 
 ||------|------------------------------------------|----------------------|
 ||------|-----------------7-5-5/8-8-8-7-7/10-10-10-|-7-8-7----------------|
 ||------|-------------4-7--------------------------|-------9-7-7/9--------|
 ||------|-----2-----5------------------------------|---------------9----9-|
 ||------|---2---5/7--------------------------------|-----------------12---|
 ||------|-0----------------------------------------|----------------------|
 |--------------------------|-------3---7-5/7-7-12-------------------|------------------|
 |-{12p10-------------------|-----5----------------12-10----10/12-12-|-12\10-8-10-8-----|
 |-} 9----12-9\7-9----------|---4------------------------12----------|--------------9-9-|
 |-. 9-------------7----7/9-|-5--------------------------------------|------------------|
 |-------------------10-----|----------------------------------------|------------------|
 |--------------------------|----------------------------------------|------------------|

[xylopbone..] [xylopbone] [xylopbone] 
 
 |-----------|--------------------|--------------------|---------------|
 |-----5-----|-5p3---5---5p3---5--|--------------------|---------------|
 |-4---------|-----4---------4----|--------------------|---------------|
 |-------5-2-|--------------------|-7p5-4h7---7p5-4h7--|---------------|
 |-----------|--------------------|--------------------|-2h3p2p0-------|
 |-----------|--------------------|--------------------|---------3p2p0-|

[Rby. fig. ................................2x] [w/Rhy. fig....................................
[Em7] [Em6] [A] [G] [Em] [A] [G] [B] [Em] [(Em)]  
 
 |------------------------0-------------------|----------------------------------------------|
 |---3----3------3------3-------3----3------2-|----------------------------------------------|
 |---0----0----0------0---------0----0----0---|----------------------------------------------|
 |-2----2----2------2---------2----2----2-----|----------------------------------------------|
 |--------------------------------------------|----------------------------------------------|
 |--------------------------------------------|----------------------------------------------|

................................................................................]
[Riff.....................] [Rep.&fade] [intermezzo] 
[Em9] [Em7] [Em] [C] [Em]  
 
 |-------------------------------------|-3---2-----------------3-|---------------|----------|
 |---------12-10-12-----------12-10-12-|-0---0---3---0---1-----0-|---------------|----------|
 |-----7-9----------------7-9----------|-0---0---0---0---0-----0-|---------------|----------|
 |-7/9----------------7/9--------------|---------2---2---2-------|-9\5-7p5h7/9\5-|----------|
 |-------------------------------------|-----------------3-------|---------------|----------|
 |-------------------------------------|-0---------------------0-|---------------|----------|

[w/Rby. fig......................................................] 
[piano...] [Repeat riff] [piano..............] 
[Em] [Em7] [Em] [C] [Em]  
 
 |-0------|-----------------------------|-----------|------------8-------|-0----|
 |-0----3-|---------8-------------8-----|-----------|-1--------8--8------|-0----|
 |-0----0-|-----7-9---9-------7-9---9---|-----------|-0------9------9----|-0----|
 |-2----2-|-7/9-----------7/9-----------|-----------|-2---10----------10-|-2----|
 |-2------|-----------------------------|-----------|-3------------------|-2----|
 |-0------|-----------------------------|-----------|--------------------|-0----|


Important: The song above is NOT stored on the Chordie server. The original song is hosted at www.guitartabs.cc. Chordie works as a search engine and provides on-the-fly formatting. Chordie does not index songs against artists'/composers' will. To remove this song please click here.

Text color:
Chord color:
Chord grids: 
Font size:    
Page size: 

A Am6 Am6/C B B7 Bm C D Edim Em Em/D Em6 Em7 Em9 G
Rate #1 of 4 versions

Login - add to songbook

SHARE PAGE  




You need to log in to post comments