Guitar Tabs, Chords and Lyrics
Major upgrade!! After one year development the new version of Chordie is now online! Please give feedback.


Pain Redefined   Disturbed

 
 ----------------------------------------------------------------------------

 


 Pain Redefined - Disturbed


 

 
 ----------------------------------------------------------------------------

 


 


 Tabbed By : _godsmack_


 e-mail: pearson1991@hotmail.com


 


 Tuning: D A D G


 


 Intro [x5]


 

 
 G|--------------------------------------------||
 D|-------------------------------------------.||
 A|------------------0-----1---------------0--.||
 D|-444-2--444-0--44----44----4444-5--4444-----||

 


 


 Verse [x2]


 

 
 G|----------------||-----------------|---------------|
 D|---------------.||-----------------|---------------|
 A|---------------.||-----------------|---------------|
 D|-4-4-44-4-44444-||-00--00-0--00000-|-2-2-22-2-5555-|

 


 


 Pre-Chorus


 

 
 G|--------------------------------------------------------------------||
 D|-------------------------------------------------------------------.||
 A|----------------------------------------2h3---------------------00-.||
 D|-444-4-4-4-4-4h5p4--6h7-4-4-4-44-4h5p4------4-4-4-44-4h5p4-2222-----||

 


 


 Chorus [x3]


 

 
 G||--------------------------------||-----------------------------|
 D||.------------------------------.||-----------------------------|
 A||.----------0---------4-4-------.||-2-2-2-2-2-2-2-2-4-4-4-4-----|
 D||---4-4-4-2---0-0-0-0-----3-3-3--||-------------------------2-2-|

 


 


 Pre-Verse [x2]


 

 
 G|--------------------------------------------||
 D|-------------------------------------------.||
 A|------------------0-----1---------------0--.||
 D|-444-2--444-0--44----44----4444-5--4444-----||

 


 


 Verse [x2]


 

 
 G|----------------||-----------------|---------------|
 D|---------------.||-----------------|---------------|
 A|---------------.||-----------------|---------------|
 D|-4-4-44-4-44444-||-00--00-0--00000-|-2-2-22-2-5555-|

 


 


 Pre-Chorus


 

 
 G|--------------------------------------------------------------------||
 D|-------------------------------------------------------------------.||
 A|----------------------------------------2h3---------------------00-.||
 D|-444-4-4-4-4-4h5p4--6h7-4-4-4-44-4h5p4------4-4-4-44-4h5p4-2222-----||

 


 


 Chorus [x3]


 

 
 G||--------------------------------||-----------------------------|
 D||.------------------------------.||-----------------------------|
 A||.----------0---------4-4-------.||-2-2-2-2-2-2-2-2-4-4-4-4-----|
 D||---4-4-4-2---0-0-0-0-----3-3-3--||-------------------------2-2-|

 


 


 Bridge


 

 
 G|---|--------------------|-----------4-------|----------------------------|
 D|---|--4--6--7---3--4--6-|--4--6--7-----7----|-4--6--7---3--4--6-7\2------|
 A|---|--------------------|-----------------5-|----------------------------|
 D|-4-|--------------------|-------------------|----------------------------|

 


 [x8] 


 

 
 G|-----------4--2-||-----------------------------------------||-----------||
 D|----------------||.---------------------------------------.||.---------.||
 A|-0-2-2-2-2------||.---------------------------------------.||.---------.||
 D|----------------||-4444-4444-3333-3333-4444-4444-3333-3333-||-444-333---||

 


 


 Chorus [x3]


 

 
 G||--------------------------------||-----------------------------|
 D||.------------------------------.||-----------------------------|
 A||.----------0---------4-4-------.||-2-2-2-2-2-2-2-2-4-4-4-4-----|
 D||---4-4-4-2---0-0-0-0-----3-3-3--||-------------------------2-2-|

 


 


 Outro [x4]


 

 
 G|--------------------------------------------||
 D|-------------------------------------------.||
 A|------------------0-----1---------------0--.||
 D|-444-2--444-0--44----44----4444-5--4444-----||


Important: The song above is NOT stored on the Chordie server. The original song is hosted at www.guitartabs.cc. Chordie works as a search engine and provides on-the-fly formatting. Chordie does not index songs against artists'/composers' will. To remove this song please click here.

This song is displayed as text-only. Transposing and tuning is only available for chordpro-songs.
Rate #1 of 3 versions

Jango Player

Login - add to songbook

SHARE PAGE  




You need to log in to post comments