Guitar Tabs, Chords and Lyrics
Server problems seems to be fixed. Chordie has been experiencing problems with songs disappearing. These issues now seems to be fixed, but still verifying the fix. If you find anything strange, please email admin@chordie.com.


Krivo je more  Divlje jagode

Divlje Jagode / Krivo je more:
Tabbed by Boris Zivkovic (walkaway)
Transsalated by #Vl@d@#
[G]Ti, ti si ga u[Am]poznala [C]jedne ljetnje [G]veceri
[G]On, on te po[Am]ljubio dok [C]more se pj[G]enilo
[Em]I ti si se za[D]ljubila [Em]mada nisi htjela [D]to
[C]Krivo je m[G]ore.
Znaj, ljeto je varljivo, a srce ti je zavodljivo
Kuci kad si dosla ti, znala si da si u zabludi
A to vece uz mora sum, od srece sva si blistala
Krivo je more.
[G] [D] [Em] [C] [G] [D] [B] 
 
 e|--7----------------7-7_8-8-8-7-----7----7_8-|
 H|----10-8-7-7_8--10-------------8-----10-----|
 G|---------------------------------7----------|
 D|--------------------------------------------|
 A|--------------------------------------------|
 E|--------------------------------------------|

[G] [G] [D] [C] [D]  
 
 7-----------------------------------|
 --7--10-8-8-8-8-7-------------------|
 ------------------9-9-9-9-7---------|
 ----------------------------10-9-7--|
 ------------------------------------|
 ------------------------------------|

[G] [D] [Em] [C] [G] [D] 
 
 e|--7_8-7-------------------7-7_8-8-8-7-----7----|
 H|-------12_-10-8-7-7_8--10-------------8-----10-|
 G|----------------------------------------7------|
 D|-----------------------------------------------|
 A|-----------------------------------------------|
 E|-----------------------------------------------|

[B] [G] [G] [D] [C] [D] [G]  
 
 7_8-7-----------------------------------|
 ------7--10-8-8-8-8-7-------------------|
 ----------------------9-9-9-9-7---------|
 --------------------------------10-9-7--|
 ----------------------------------------|
 ----------------------------------------|

Znaj, ljeto je varljivo, a srce ti je zavodljivo
Kuci kad si dosla ti, znala si da si u zabludi
A to vece uz mora sum, od srece sva si blistala
Krivo je more.

Important: The song above is NOT stored on the Chordie server. The original song is hosted at www.guitartabs.cc. Chordie works as a search engine and provides on-the-fly formatting. Chordie does not index songs against artists'/composers' will. To remove this song please click here.

Text color:
Chord color:
Chord grids: 
Font size:    
Page size: 

Am B C D Em G
Rate #3 of 6 versions

Jango Player

Login - add to songbook

SHARE PAGE  




You need to log in to post comments