Guitar Tabs, Chords and Lyrics
Server problems seems to be fixed. Chordie has been experiencing problems with songs disappearing. These issues now seems to be fixed, but still verifying the fix. If you find anything strange, please email admin@chordie.com.


Perhaps, Perhaps, Perhaps  Doris Day

Perhaps, Perhaps, Perhaps
Doris Day
Chords Used:
[E] [A] [D] [G] [B] [E]  
 
 ---------------------------

C/A == 5 - 5 5 5 -
Dm/B == - 2 3 2 3 -
E == - 2 2 3 0 -
Am == - 0 2 2 1 -
F == 1 3 3 2 1 -
A == - 0 2 2 2 -
F7Madd11 == 1 3 3 2 0 0
E7 == 0 2 0 1 3 0
C6 == 0 0 2 0 1 3
Intro:
 
 E||--5----0--3-------1-----|--0--------0--------||
 B||---------------3-----3--|-----------3--------||
 G||------------------------|-----------1--------||
 D||---------------0--------|-----------0--------||
 A||------------------------|-----------2--------||
 E||--5----0--3-------1-----|--0--------0--------||

[E7] 
 
 e||------------------------|----------------||
 B||------------------------|----------------||
 G||------------------------|----------------||
 D||---------------0--------|----------------||
 A||---------------------0--|----------------||
 E||--5----0--3-------1-----|--0-------------||

You won't admit you [C/A]love me
And[Dm/B] so [E] how am I[Am] ever
to k[Dm/B]now?[E]
You always [Am]tell me
Perh[F]aps, perh[E]aps, perh[Am]aps
(Repeat chords)
A million times I've asked you,
And then I ask you over again
You only answer
Perhaps, perhaps, perhaps
CHORUS:
If you can't make your m[E]ind up
We'll ne[E7]ver get sta[A]rted
And I don't wanna w[E]ind up
Being pa[E7]rted, broken-hea[A]rted
So if you really l[C/A]ove me
Say[Dm/B] yes, [E] but if you d[Am]on't dear,
conf[Dm/B]ess[E]
And please don't [Am]tell me
Perh[F]aps, perh[E]aps, perh[Am]aps
Perh[F]aps, perh[E]aps, perh[Am]aps
F7Madd11 E7 C6(upstroke)
Perhaps, perhaps, perhaps

Important: The song above is NOT stored on the Chordie server. The original song is hosted at www.guitartabs.cc. Chordie works as a search engine and provides on-the-fly formatting. Chordie does not index songs against artists'/composers' will. To remove this song please click here.

Text color:
Chord color:
Chord grids: 
Font size:    
Page size: 

A Am B D Dm/B E E7 F G
Rate #1 of 7 versions

Login - add to songbook

SHARE PAGE  



You need to log in to post comments