Guitar Tabs, Chords and Lyrics
Server problems seems to be fixed. Chordie has been experiencing problems with songs disappearing. These issues now seems to be fixed, but still verifying the fix. If you find anything strange, please email admin@chordie.com.


Vengeance Unleashed   Dying Fetus

 
 ------------[1 & 3]----------------|------------[2]-------------------|
 -----------------------------------|----------------------------------|
 -----------------------------------|----------------------------------|
 --4-------4------------------------|-4-------4------------------------|
 -----------------------------------|----------------------------------|
 ------2-------2---4---5---1---1----|-----2-------2---4---5---5---4----|

 


 Tr.............................. tr..............................


 


 

 
 ------------[4]--------------------|
 -----------------------------------|
 -----------------------------------|
 -----------------------------------|
 --4---3---4---6---7---6---4---3----|
 --2---1---2---4---5---4---2---1----|

 


 [cbords] 


 


 Riff 2


 

 
 ------------[1 & 3]----------------|------------[2]-------------------|
 -----------------------------------|----------------------------------|
 -----------------------------------|----------------------------------|
 -----------------------------------|----------------------------------|
 --4-4---4-4-4---4-6---7---3---3----|-4-4---4-4-4---4-6---7---7---7----|
 --2-2---2-2-2---2-4---5---1---1----|-2-2---2-2-2---2-4---5---5---5----|
 ------------[4]--------------------|
 -----------------------------------|
 -----------------------------------|
 --4---2-----------2----------------|
 ----------5---4-------5---4--------|
 ------------------------------1----|

 


 tr..............................


 


 Riff 3 ...ending 1


 

 
 -----------------------------------|---------------------------------|
 -----------------------------------|---------------------------------|
 -----------------------------------|-------------5-8-4-7-------------|
 -----------------------------------|---------5-8---------5-8---------|
 --------------2h3h5----------------|-----5-8-----------------5-8-----|
 --0---0---0--------1---1---2---3---|-4-7-------------------------4-7-|

 


 tr.......... tr..............


 


 ...ending 2


 

 
 --12-13-16-13-12-------------------------------------------------------------------------------|
 -----------------15-13-12-------------------12-13-16-13-12-------------------------------------|
 --------------------------15-13-12-------------------------15-13-12----------------------------|
 -----------------------------------15-13-12-------------------------15-13-12-------------------|
 -----------------------------------------------------------------------------15-13-12----------|
 --------------------------------------------------------------------------------------15-13-12-|

 


 16ths........................................................................................


 


 ...ending 3


 

 
 ------------5-7-8--------------7-9-10--------------9-11-12--------------11-13-14---|
 -----------------------------------------------------------------------------------|
 -----------------------------------------------------------------------------------|
 --7-9-10-------------7-9-10--------------7-9-10---------------7-9-10---------------|
 -----------------------------------------------------------------------------------|
 -----------------------------------------------------------------------------------|

 


 16ths...........................................................................


 


 ...ending 4


 

 
 ----------------------------------|
 ----------------------------------|
 ----------------------------------|
 ----------------------------------|
 --4---3---4---6---7---------------|
 --2---1---2---4---5---------------|

 


 


 [Repeat riffs 1-3, riff 2 bas variations of tremolo picking and cbugging cbords] 


 [ Tab from: bttp://www.guitartabs.cc/tabs/d/dying_fetus/vengeance_unleasbed_tab_ver_2.btml ] 


 Riff 4


 

 
 --------------------------------------------------|
 -----[ring out, repeat]---------------------------|
 --------------------------------------------------|
 --------------------------------------------------|
 --4-----------------------------------------------|
 --2-----------------------------------------------|

 


 


 Riff 5


 

 
 -------------------------------------------------------------------|
 -------------------------------------------------------------------|
 -------------------------------------------------------------------|
 -------------------------------------------------------------------|
 --4---4-------3/4-4---4---5--3--5--4---4-------3/7-6-----7-6---5/7-|
 --2---2---0-0-1/2-2---2---3--1--3--2---2---0-0-1/5-4---0-5-4---3/5-|

 


 


 Riff 6


 

 
 ------------------------------------|
 -[3x]--------------------------[ah]-|
 --------------------------------3---|
 ------------------------------------|
 --4-3-2-3-6-3-2-3-4-3-2-3-6-3-2-----|
 --2-1-0-1-4-1-0-1-2-1-0-1-4-1-0-----|
 ------------------------------------|
 -[1x]-------------------------------|
 ------------------------------------|
 ------------------------------------|
 --4-3-2-3-6-3-2-3-4-3-2-3-6-3-2-3---|
 --2-1-0-1-4-1-0-1-2-1-0-1-4-1-0-1---|

 


 


 Riff 7


 

 
 ---------------------------|
 ---------------------------|
 ---------------------------|
 ---------------------------|
 --4------------------------|
 --2-------2-2-4-5-1--------|

 


 


 Riff 8


 

 
 ------------------------------------------------------------------|
 ------------------------------------------------------------------|
 ------6---7---6-------6---4-----------4---------------------------|
 --4---------------7-----------7---6-------7---6---7---6---4---3---|
 ------------------------------------------------------------------|
 ------------------------------------------------------------------|

 


 [trem. pick entire riff] 


 


 

 
 ------------------------------------------------------------------|
 ------------------------------------------------------------------|
 ------6---7---6-------6---4-------4---4---6---7---6---6-----------|
 --4---------------7-----------7---------------------------7---6---|
 ------------------------------------------------------------------|
 ------------------------------------------------------------------|

 


 


 Riff 9


 

 
 ------------------------------------------------------------------|
 ------------------------------------------------------------------|
 ------------------------------------------------------------------|
 ------------------------------------------------------------------|
 ------444-555-444-----444-222---------222-------------------------|
 --222-------------555---------555-444-----555-444-555-444-222-111-|
 -------------------------------------------------------------------|
 -------------------------------------------------------------------|
 -------------------------------------------------------------------|
 -------------------------------------------------------------------|
 ------444-555-444-----444-222-----222222224444555544444444---------|
 --222-------------555---------555-------------------------55554444-|

 


 


 Riff 10


 

 
 ------------------------------------------------------------------|
 ------------------------------------------------------------------|
 ------------------------------------------------------------------|
 ------------------3/6-----3/7-------------------------------------|
 ----------------------------------4-3-2-3-6-3-2-3-4-3-2-3-6-3-2-3-|
 --2---2---2---2---1/4-----1/5-----2-1-0-1-4-1-0-1-2-1-0-1-4-1-0-1-|

 


 tr..............


 


 Riff 11


 

 
 --------------------------------------------------|
 --------------------------------------------------|
 --------------------------------------------------|
 --------------------------------------------------|
 --------------------------------------------------|
 --000-000-000-111-000-000-111-444-111-222-111-222-|
 ---------------------------------------------------------------------|
 ---------------------------------------------------------------------|
 --------------------------t11p7p4------------------------------------|
 ---------------------------------t11p7p4-------t11p7p4---------------|
 ----------------------------------------t11p7p4-------t11p7p4--------|
 --000-000-000-111-000-000------------------------------------t11p7p4-|


Important: The song above is NOT stored on the Chordie server. The original song is hosted at www.guitartabs.cc. Chordie works as a search engine and provides on-the-fly formatting. Chordie does not index songs against artists'/composers' will. To remove this song please click here.

This song is displayed as text-only. Transposing and tuning is only available for chordpro-songs.
Rate #1 of 3 versions

Login - add to songbook

SHARE PAGE  




You need to log in to post comments