Guitar Tabs, Chords and Lyrics
Major upgrade!! After one year development the new version of Chordie is now online! Please give feedback.


Wasted Time  Eagles

this is a long song tabbed by james pugrad
intro piano arranged for guitar
 
 e-----------0-----------------------------0----------------|
 b-----1--3-----------3-------------1---3-----3------3---1--|
 g-0------------------1----------0------------2---2--4---2--|
 d-3------------------3----------2------------3------3---3--|
 a-2------------------------1-------------------------------|
 e--------------------1-------4--3------------3------3---3--|

well baby there u stand
 
 e-----------------------0-------------------------------|
 b-1--------------3------------3----------------------1--|
 g-0---------------------------1----------------------0--|
 d-2---------------------------3----------------------2--|
 a-3-----------------------------------------1-----------|
 e-----------------------------1----------------4-----3--|
 e----------------------8------8--------8----------|
 b---------------------------6--------5-------6-5--|
 g--------------2-0---------5--------5-------7--5--|
 d--------------3-0-------7--------5--------7---5--|
 a-------------------------------------------------|
 e----------3---3-3--------------------------------|
 e-8-------8-------8----------1----1---|
 b------6-------5------6------1----3---|
 g-----5-------5------7-------2----0---|
 d----7-------5------7--------3----0---|
 a-------------------------------------|
 e----------------------------3----3---|

( Tab from: http://www.guitartabs.cc/tabs/e/eagles/wasted_time_tab.html )
back out on the street
 
 e---------------------------------------------------------|
 b-1---3--------4p3p1-------------------------1------------|
 g-0---1--------------1-0---------------------0------------|
 d-2---3-------------------3s5----------------2------------|
 a-3-----------------------------------1-------------------|
 e-----3-----------------------------------4--3----------3-|

the autumn leavs have got u thinkin
 
 e--------5-------------------------------------|
 b------5----5-8-8b-8---------------------------|
 g--7b-----------------7--7b--(7)-5-------------|
 d-----------------------------------7-5-7-7b---|
 a----------------------------------------------|
 e----------------------------------------------|

about the first time that u fell
 
 e-------------------------------------------|
 b-20b---20p19p17----------------------------|
 g-----------------19-17-16------------------|
 d----------------------------------17-------|
 a-----------------------------19--------19b-| (do full bend)
 e-------------------------------------------|

lyrics
[C]well baby there u [Fm6]stand
[C/G]with your little head down in ur [F/G]hands______[G7]____
[F]whoa my god i ca[C/E]nt beliv[Dm]e its happini[C/E]ng again your [F]babys gone and ur al[C/E]l
alone and it look[Dm]s like the end[F/G] [G7]
[C]and your back our on the stee[Fm6]t and[C/G] trying to [F/G]remember o[G7]h ho[F]w do u start
it ove[C/E]r i wonder if u c[Dm]an you [F]dont care much for a stranger touch

Important: The song above is NOT stored on the Chordie server. The original song is hosted at www.guitartabs.cc. Chordie works as a search engine and provides on-the-fly formatting. Chordie does not index songs against artists'/composers' will. To remove this song please click here.

Text color:
Chord color:
Chord grids: 
Font size:    
Page size: 

C C/E C/G Dm F F/G Fm6 G7
Rate #2 of 9 versions

Jango Player

Login - add to songbook

SHARE PAGE  




You need to log in to post comments