Guitar Tabs, Chords and Lyrics
Major upgrade!! After one year development the new version of Chordie is now online! Please give feedback.


Painting on the Wall   Edguy

 
 G --------------|
 D --------------|
 A -2---3--------| 2x
 E ---0---333333-|

 


 


 verse


 

 
 G -------------------------------------------------------------------|
 D -------------------------------------------------------------------|
 A -----------------3333333333333333-----------------333333333333-----|
 E -0000000000000000-----------------0000000000000000------------0000-|

 


 


 Pre Chorus I


 

 
 G ----------------------------------------------------------------|
 D ----------------------------------------------------------------|
 A ----------------5555555555555555----------------33333333555555--|
 E -3333-33-333553------------------0----00-0-00-0-----------------|

 


 [ss] [s] [ss] [s] 


 Chorus


 

 
 G ---------------------------------------------------------------|
 D ---------------------------------------------------------------|
 A -2222222-------3333--------------0--22222222------3333-5(16x)--|
 E ----------0000-------33333333---3------------0000--------------|

 


 


 After Chorus I


 

 
 G ----------------------------------------------|
 D ----------------------------------------------|
 A ----------------5555555555555555--2----3---5--|
 E -3333-34-544444-------------------------------|

 


 


 Verse II 1x 2x


 

 
 G -----------------|------------------------------------|
 D -----------------|------------------------------------|
 A -7777777777-7----|-7777777777777777-3333333333333332--|
 E -----------0-7/0-|------------------------------------|

 


 


 Pre Chorus I 1x


 Chorus 1x


 After Chorus I 1x


 


 Intro solo during the solo


 

 
 G --------------|-------------------------------------...
 D --------------|-------------------------------------...
 A --------------|-3333333333333333-0000000000000000---...
 E -000000000000-|-------------------------------------...
 G -----------------------------------|
 D -------------3333------------------|
 A -333333333333----------------------|
 E ------------------3333333333333333-|

 


 


 Bridge (something close to this)


 

 
 G --------------------------2h4p2h4--------------|
 D ----------------------2h4----------------------|
 A -------------------2h4-------------------------|
 E -4--44-3--33-1--11-----------------5--55-00-00-|


Important: The song above is NOT stored on the Chordie server. The original song is hosted at www.guitartabs.cc. Chordie works as a search engine and provides on-the-fly formatting. Chordie does not index songs against artists'/composers' will. To remove this song please click here.

This song is displayed as text-only. Transposing and tuning is only available for chordpro-songs.
Rate #1 of 1 versions

Login - add to songbook

SHARE PAGE  




You need to log in to post comments