Guitar Tabs, Chords and Lyrics
Login is temporarily disabled for some users. Do not panic. Will be back in an hour or two. DO NOT REREGISTER!!


Tonightless  Eighteen Visions

 
 -------------------------------------------------------------------------------

SONG NAME - Band Name
 
 -------------------------------------------------------------------------------

Tabbed by:
Email:
Tuning: Down 1 and a half steps
Intro: Acoustic
x2
[G]  
 
 e|----3-3-----3-----3-----3-----3--------3-----3---------------------------|
 B|----3-3-----3-----3-----3-----3--------3-----3---------------------------|
 G|----0-0-----0-----0-----0-----0--------0-----0---------------------------|
 D|----0-0-----0-----0-----0-----0--------0-----0---------------------------|
 A|----2-2-----2-----2-----2-----2--------2-----2--------------------------|
 E|----3-3-----3-----3-----3-----3--------3-----3---------------------------|

Dsus/F# (Play with your thumb bent over the top of the neck)
 
 e|----3-3-----3-----3-----3-----3--------3-----3---------------------------|
 B|----3-3-----3-----3-----3-----3--------3-----3---------------------------|
 G|----2-2-----2-----2-----2-----2--------2-----2---------------------------|
 D|----0-0-----0-----0-----0-----0--------0-----0---------------------------|
 A|----x-x-----x-----x-----x-----x--------x-----x---------------------------|
 E|----2-2-----2-----2-----2-----2--------2-----2---------------------------|

[Em7]  
 
 e|----3-3-----3-----3-----3-----3--------3-----3---------------------------|
 B|----3-3-----3-----3-----3-----3--------3-----3---------------------------|
 G|----0-0-----0-----0-----0-----0--------0-----0---------------------------|
 D|----2-2-----2-----2-----2-----2--------2-----2---------------------------|
 A|----2-2-----2-----2-----2-----2--------2-----2---------------------------|
 E|----0-0-----0-----0-----0-----0--------0-----0---------------------------|

[Cadd9]  
 
 e|----3-3-----3-----3-----3-----3--------3-----3---------------------------|
 B|----3-3-----3-----3-----3-----3--------3-----3---------------------------|
 G|----x-x-----x-----x-----x-----x--------x-----x---------------------------|
 D|----2-2-----2-----2-----2-----2--------2-----2---------------------------|
 A|----3-3-----3-----3-----3-----3--------3-----3---------------------------|
 E|----x-x-----x-----x-----x-----x--------x-----x---------------------------|

Verse Intro: Electric
x2
 
 e|-----------------3-------3--------------3-----------3------3-------------|
 B|-----------------3-------3--------------3-----------3------3-------------|
 G|----0------------0-------0--------------2-----------2------2-------------|
 D|----0------------0-------0--------------0-----------0------2-------------|
 A|----2------------2-------2--------------x-----------x------x-------------|
 E|----3------------3-------3--------------2-----------2------2-------------|
 e|-------------------------------------------------------------------------|
 B|-------------------------------------------------------------------------|
 G|-----7/9--9--9--9--12\11-11-11-11\7--7--7--7--7--------------------------|
 D|-------------------------------------------------------------------------|
 A|-----5/7--7--7--7--10\9--9--9--9\-5--5--5--5--5--------------------------|
 E|-------------------------------------------------------------------------|

Verse
x2
 
 e|-------------------------------------------------------------------------|
 B|-------------------------------------------------------------------------|
 G|-------------------------------------------------------------------------|
 D|----55555555-----55555555-----22222222-----22222222----------------------|
 A|----55555555-----55555555-----22222222-----22222222----------------------|
 E|----33333333-----22222222-----00000000-----00000000----------------------|

........ ........ ........ ........
x2
 
 e|-------------------------------------------------------------------------|
 B|-------------------------------------------------------------------------|
 G|-------------------------------------------------------------------------|
 D|----5---55---5---5-----5---55---5---5----2p0h2-----2---2--2p0h2-----2---2|
 A|----5---55---5---5-----5---55---5---5----2p0h2-----2---2--2p0h2-----2---2|
 E|----3-3-33-3-3-3-3-----2-2-22-2-2-2-2----0---0-0-0-0-0-0--0---0-0-0-0-0-0|

. . . . . . . . . . . .
Chorus
x4
 
 e|-------------------------------------------------------------------------|
 B|-------------------------------------------------------------------------|
 G|-22222222-----55555555------------------77777777-------------------------|
 D|-22222222-----55555555-----55555555-----77777777-------------------------|
 A|-00000000-----33333333-----55555555-----55555555-------------------------|
 E|---------------------------33333333--------------------------------------|

That's all I have right now folks. I'll definately get the rest of it up there soon.
| / slide up
| \ slide down
| h hammer-on
| p pull-off
| ~ vibrato
| + harmonic
| x Mute note
===============================================================================

Important: The song above is NOT stored on the Chordie server. The original song is hosted at www.guitartabs.cc. Chordie works as a search engine and provides on-the-fly formatting. Chordie does not index songs against artists'/composers' will. To remove this song please click here.

Text color:
Chord color:
Chord grids: 
Font size:    
Page size: 

Cadd9 Em7 G
Rate #1 of 2 versions

Jango Player

Login - add to songbook

SHARE PAGE  



You need to log in to post comments