Guitar Tabs, Chords and Lyrics
Server problems seems to be fixed. Chordie has been experiencing problems with songs disappearing. These issues now seems to be fixed, but still verifying the fix. If you find anything strange, please email admin@chordie.com.


Guinevere  Eli Young Band

Song: Guinevere
Tuning: Standard
This tab should be pretty close to the album version of the song. You can either play
the riffs for the intro/verse 1 as i've tabbed out below or play the chords which i've
also put above the lyrics. The two G chords with the asterisk (*) are only played if you
are not playing the tabbed riff.
(Chords in Parenthesis are the base chords for each riff, the 'base' chords are shown below):
Chords:
[C] [G] [Am] [F]  
 
 ------3----0----0--|
 -1----1----1----1--|
 -0----0----2----2--|
 -2----0----2----3--|
 -3----2----0-------|
 ------3------------|

Intro/Verse 1: (through 'needs to land')
[(C)] [(G)] [(Am)]  
 
 -----------------------3-----------------------------------|
 --------1----------1---1h3--------------------1----1-------|
 ----------0------------0---0-------0----0-----0h2----2-----|
 ---0h2------2--0h2-----0---0h2-0---0h2----2---0h2------2---|
 ---3--------3--3------------------------------0--------0---|
 -----------------------3-----------------------------------|

(Am cont) (F)
 
 --------------------------0-------------------------------|
 ---1----1-----------1-----1-------------------------------|
 ---0h2----2----0h2----2---2-------------------------------|
 ---0h2---------3----------3-------------------------------|
 ---0----------------------0-------------------------------|
 ----------------------------------------------------------|

Next part of verse 1: ('She's a saturday night...' --to--...including me.')
[(Am)] [(F)] [(G)]  
 
 ----------------------------------0----3------------------|
 -----1--------0-1-0---------1-----1----1h3----------------|
 --2----2----0-------0-----2---2---2----0---0--------------|
 --2------2--------------3---------3----0---0h2-0----------|
 --0-------------------------------------------------------|
 ---------------------------------------3------------------|

She's got a [C]bumper like a billboard
Covered in stickers of her fa[G]vorite band
She's got a [Am]handful of records that she turns to
When she n[F]eeds to land
Am G* (play this if not picking riff above for Verse)
She's a saturday night parade through the streets
That [F]all eyes some to see including [G]me
(Drums enter; Repeat First Riff above--Same as first part of the verse)
She carries [C]memories around like souvenirs down in her [G]pockets
She should have [Am]let some go by now but can't seem to [F]drop it
Am G* (same as G* above)
Says forgiveness ain't nothing but a lifeless tire on the
sh[F]oulder of her soul
That never [G]rolls
Chours:
For as [Am]much as she s[F]tumbled she's ru[C]nnin'
For as [Am]much as she r[F]uns she's still h[C]ere
Always [Am]hoping to f[G]ind something qu[F]icker than he[C]aven
To make the d[C]amage of her day[C]s disap[G]pear
Ju[F]st like G[G]uin[Am]ever[F]e[C]
She don't [C]hold onto nothin' new for ve[G]ry long
Yeah she [Am]writes you in as just one more tale
and the[F]n you're gone
'Cause she [Am]once fell hard 'cause she d[G]ropped her guard
And [F]no one gets to stay it's just too [G]late
(Repeat Chorus)
[Am]Just like [F]Guinever[C]e
For as m[Am]uch as she's s[F]tumbled she's r[C]unnin'
For as m[Am]uch as she r[F]uns she's still h[C]ere
(Repeat Chorus)
Oh [Am]Just like [F]Guinever[C]e
(instrumental)

Important: The song above is NOT stored on the Chordie server. The original song is hosted at www.guitartabs.cc. Chordie works as a search engine and provides on-the-fly formatting. Chordie does not index songs against artists'/composers' will. To remove this song please click here.

Text color:
Chord color:
Chord grids: 
Font size:    
Page size: 

Am C F G
Rate #2 of 9 versions

Jango Player

Login - add to songbook

SHARE PAGE  




You need to log in to post comments