Guitar Tabs, Chords and Lyrics
Server problems seems to be fixed. Chordie has been experiencing problems with songs disappearing. These issues now seems to be fixed, but still verifying the fix. If you find anything strange, please email admin@chordie.com.


Hello Old Friend  Eric Clapton

Hello Old Friend
Eric Clapton
Intro:
 
 |-/10--\8---------8------------------------------------------|
 |---------10--\8------10\8---12\10---------------------------|
 |-----------------------------------11---9/11---9------9-----|
 |--------------------------------------------------12-----12-|
 |------------------------------------------------------------|
 |------------------------------------------------------------|
 |-/10--\8---------8---------------------|
 |---------10--\8------10\8---12\10------|
 |-----------------------------------11--|
 |---------------------------------------|
 |---------------------------------------|
 |---------------------------------------|

As [G]I was strolling [C]down the garden [G]park
 
 |-15\12------------------|
 |--------12----10/12-----|
 |---------------------12-|
 |------------------------|
 |------------------------|
 |------------------------|

I [G]saw a flower [C]glowing in the [G]dark
 
 |---------------------------------------------|
 |---------------------------------------------|
 |-9h12p9--------------------------------------|
 |---------9h12p9------------------------------|
 |-----------------10h12p10-/14----14-12-10----|
 |------------------------------------------12-|

It [G]looked so pretty [C]and it was u[G]nique
I [G]had to bend down [C]just to have a [G]peek
 
 |--------12\10-----|
 |--------12\10--12-|
 |---------------12-|
 |-12-14------------|
 |------------------|
 |------------------|

Hello old [Bm]friend (hello old [Am]friend)
It's [C]really good to [D]see you once [G]again
Hello old [Bm]friend (hello old [Am]friend)
It's [C]really good to [D]see you once [G]again
 
 |-/10--\8---------8---------------------|
 |---------10--\8------10\8---12\10------|
 |-----------------------------------11--|
 |---------------------------------------|
 |---------------------------------------|
 |---------------------------------------|
 |-/10--\8---------8---------------------|
 |---------10--\8------10\8---12\10------|
 |-----------------------------------11--|
 |---------------------------------------|
 |---------------------------------------|
 |---------------------------------------|

[G]Saw you walking [C]underneath the [G]stars
[G]Couldn't stop 'cause [C]I was in a [G]car
 
 |-12\10--------------|
 |---------10/12------|
 |-----------------12-|
 |--------------------|
 |--------------------|
 |--------------------|

I'm [G]sure the distance [C]wouldn't be too [G]far
If [G]I got out and [C]walked to where you [G]are
 
 |-17----15-------------|
 |----17----15-17\15----|
 |-------------------16-|
 |----------------------|
 |----------------------|
 |----------------------|

Hello old [Bm]friend (hello old [Am]friend)
It's [C]really good to [D]see you once [G]again
Hello old [Bm]friend (hello old [Am]friend)
It's [C]really good to [D]see you once [G]again
 
 |-/10--\8---------8---------------------|
 |---------10--\8------10\8---12\10------|
 |-----------------------------------11--|
 |---------------------------------------|
 |---------------------------------------|
 |---------------------------------------|

( Tab from: http://www.guitartabs.cc/tabs/e/eric_clapton/hello_old_friend_tab.html )
 
 |-/10--\8---------8---------------------|
 |---------10--\8------10\8---12\10------|
 |-----------------------------------11--|
 |---------------------------------------|
 |---------------------------------------|
 |---------------------------------------|

Organ Solo guitar work:
 
 |-17-----------------15\-------------------------------|
 |-----17/19----15\12----------12\10---------10---------|
 |------------------------------------9/11------11p9----|
 |---------------------------------------------------12-|
 |------------------------------------------------------|
 |------------------------------------------------------|

An [G]old man passed me [C]on the street to[G]day
 
 |------------------|
 |-10/12------------|
 |--------12----9\7-|
 |------------------|
 |------------------|
 |------------------|

I [G]thought I knew him [C]but I couldn't [G]say
 
 |-12\10-------|
 |---------/12-|
 |-------------|
 |-------------|
 |-------------|
 |-------------|

I [G]stopped to think if [C]I could place his [G]frame
 
 |-15\12--------------------|
 |--------12------10/12-----|
 |-----------------------12-|
 |--------------------------|
 |--------------------------|
 |--------------------------|

[G]When he tipped his [C]hat I knew his [G]name
 
 |-12\10-------|
 |-12\10----12-|
 |----------12-|
 |-------------|
 |-------------|
 |-------------|

Hello old [Bm]friend (hello old [Am]friend)
It's [C]really good to [D]see you once [G]again
Hello old [Bm]friend (hello old [Am]friend)
It's [C]really good to [D]see you once [G]again
 
 |-/10--\8---------8---------------------|
 |---------10--\8------10\8---12\10------|
 |-----------------------------------11--|
 |---------------------------------------|
 |---------------------------------------|
 |---------------------------------------|
 |-/10--\8---------8---------------------|
 |---------10--\8------10\8---12\10------|
 |-----------------------------------11--|
 |---------------------------------------|
 |---------------------------------------|
 |---------------------------------------|

Organ Solo guitar work:
 
 |-15\12------------------------------------|
 |--------10--------------------------------|
 |-----------9-11----9--------------12---11-|
 |----------------12---9-12------9----------|
 |--------------------------12--------------|
 |------------------------------------------|

Hello old [Bm]friend (hello old [Am]friend)
It's [C]really good to [D]see you once [G]again
Hello old [Bm]friend (hello old [Am]friend)
It's [C]really good to [D]see you once [G]again
 
 |-/10--\8---------8---------------------|
 |---------10--\8------10\8---12\10------|
 |-----------------------------------11--|
 |---------------------------------------|
 |---------------------------------------|
 |---------------------------------------|
 |-/10--\8---------15\12-----------------|-15\12---15\12--17\15------------------|
 |---------10--\8--------12---12\10------|----------------------/17-17-15--------|
 |-----------------------------------11--|---------------------------------------|
 |---------------------------------------|---------------------------------14/16-|
 |---------------------------------------|---------------------------------------|
 |---------------------------------------|---------------------------------------|
 |-17----15----12----------------|
 |----17----15----12-15----12----|
 |----------------------14----12-|
 |-------------------------------|
 |-------------------------------|
 |-------------------------------|

Outro:
 
 |-12------------------------|
 |----12-15----12------------|
 |----------14----12-14---12-|
 |------------------------12-|
 |---------------------------|
 |---------------------------|


Important: The song above is NOT stored on the Chordie server. The original song is hosted at www.guitartabs.cc. Chordie works as a search engine and provides on-the-fly formatting. Chordie does not index songs against artists'/composers' will. To remove this song please click here.

Text color:
Chord color:
Chord grids: 
Font size:    
Page size: 

Am Bm C D G
Rate #1 of 8 versions

Login - add to songbook

SHARE PAGE  




You need to log in to post comments