Guitar Tabs, Chords and Lyrics
Login is temporarily disabled for some users. Do not panic. Will be back in an hour or two. DO NOT REREGISTER!!


Time After Time  Eva Cassidy

 
 -------------------------------------------------------------------------------

time after time - eva cassidy
 
 -------------------------------------------------------------------------------

Tabbed by: R chi
Email:Angelus121@gmail.com
Tuning:standard
so this version of this song is from the smallville
soundtract talon mix. everything's standard
the chords are simple you just have to finger pluck it
enjoy
intro:D Bm A G
 
 e|-----------------------------------------------------3--|
 B|--3----3--3---3----3----3----3-----3--2-----2--3--------|
 G|-----2------2---------2----------4--------2--------0----|
 D|-4/5------4-----2-4/5-----2--4-4--------2--------0------|
 A|-----------------------------2--------0-----------------|
 E|-----------------------------------------------3--------|

verse1
Lying in my bed I hear the...
(so basicly repeat this part until the refrain)
 
 e|--------------------------------------------------------|
 B|--3----3--3---3----3----3----3----3--3---3--------------|
 G|-----2------2---------2---------2------2----------------|
 D|-4/5------4-----2-4/5-----2-4/5------4-----2------------|
 A|--------------------------------------------------------|
 E|--------------------------------------------------------|

refrain1
Flash back to warm nights
[G] [A] [F#m] [G]  
 
 e|--------------------------------------|
 B|--3------5-----5----2------3-----5----|
 G|------4------6---6------2------4---4--|
 D|----5------7----------4------5--------|
 A|--------------------------------------|
 E|--3------5----------2------3----------|

Al most left behind
[G] [A] [F#m]  
 
 e|--3-------------------------2-0-------|
 B|---------5-----5----2-----2-----------|
 G|------4------6---6------2-------------|
 D|----5------7----------4---------------|
 A|--------------------------------------|
 E|--3------5----------2-------2-2-------|

Suit case of memo ries, Time af ter
[G] [A] [F#m] [G] [G] [G] [A]  
 
 e|-------------------------------------3-------------------|
 B|--3------5-----5----2------3-----5-----3-----3--3--5-----|
 G|------4------6---6------2------4---4-------4-------------|
 D|----5------7----------4------5-----------5---------------|
 A|---------------------------------------------------------|
 E|--3------5----------2------3-----------3--------3--5-----|

Sometimes you picture me...
(same as verse1)
 
 e|--------------------------------------------------------|
 B|--3----3--3---3----3----3----3----3--3---3--------------|
 G|-----2------2---------2---------2------2----------------|
 D|-4/5------4-----2-4/5-----2-4/5------4-----2------------|
 A|--------------------------------------------------------|
 E|--------------------------------------------------------|

refrain2
And you say go slow
[G] [A] [F#m] [G]  
 
 e|--------------------------------------|
 B|--3------5-----5----2------3-----5----|
 G|------4------6---6------2------4---4--|
 D|----5------7----------4------5--------|
 A|--------------------------------------|
 E|--3------5----------2------3----------|

I fall behind
[G] [A] [F#m]  
 
 e|--3-------------------------2-0-------|
 B|---------5-----5----2-----2-----------|
 G|------4------6---6------2-------------|
 D|----5------7----------4---------------|
 A|--------------------------------------|
 E|--3------5----------2-------2-2-------|

The second hand unwinds
[G] [A] [F#m] [G]  
 
 e|---------------------------------|
 B|--3------5-----5----2------------|
 G|------4------6---6------2--------|
 D|----5------7----------4----------|
 A|---------------------------------|
 E|--3------5----------2------3-----|

chorus
If you're lost you can look and you will find me
[A] [Bm] [Bm] [A]  
 
 e|---------------------------------------------------|
 B|---------5--------5--------5-----3-----3-------3-2-|
 G|---------------6--------6------------4-------------|
 D|------------7--------7-------------4---------------|
 A|---------------------------------2-------------2-0-|
 E|---------5--------5--------------------------------|

Time after time
[G] [A] [D]  
 
 e|-------------------------------------|
 B|--0-----0-5-----5------3-------------|
 G|------0-------6------2---------------|
 D|----0-------7------0-----------------|
 A|-------------------------4/5-4-2-0---|
 E|--3-------5--------------------------|

If you fall I will catch you I'll be waiting
[A] [Bm] [Bm] [A]  
 
 e|---------------------------------------------------|
 B|---------5--------5--------5-----3-----3-------3-2-|
 G|---------------6--------6------------4-------------|
 D|------------7--------7-------------4---------------|
 A|---------------------------------2-------------2-0-|
 E|---------5--------5--------------------------------|

Time after time
[G] [A] [D]  
 
 e|-------------------------------------|
 B|--0-----0-5-----5------3-------------|
 G|------0-------6------2---------------|
 D|----0-------7------0-----------------|
 A|-------------------------4/5-4-2-0---|
 E|--3-------5--------------------------|

If you fall I will catch you I'll be waiting
[A] [Bm] [Bm] [A]  
 
 e|---------------------------------------------------|
 B|---------5--------5--------5-----3-----3-------3-2-|
 G|---------------6--------6------------4-------------|
 D|------------7--------7-------------4---------------|
 A|---------------------------------2-------------2-0-|
 E|---------5--------5--------------------------------|

( Tab from: http://www.guitartabs.cc/tabs/e/eva_cassidy/time_after_time_tab_ver_3.html )
Time after time
[G] [A] [D]  
 
 e|-------------------------------------|
 B|--0-----0-5-----5------3-------------|
 G|------0-------6------2---------------|
 D|----0-------7------0-----------------|
 A|-------------------------4/5-4-2-0---|
 E|--3-------5--------------------------|

Time after time
[G] [A] [D]  
 
 e|--------------------------------------|
 B|--0-----0-5-----5------3--------------|
 G|------0-------6------2----------------|
 D|----0-------7------0------------------|
 A|--------------------------5-4-2/4-----|
 E|--3-------5---------------------------|

[D] [Bm] [A] [G]  
 
 e|-----------------------------------------------------3--|
 B|--3----3--3---3----3----3----3-----3--2-----2--3--------|
 G|-----2------2---------2----------4--------2--------0----|
 D|-4/5------4-----2-4/5-----2--4-4--------2--------0------|
 A|-----------------------------2--------0-----------------|
 E|-----------------------------------------------3--------|

verse3
After your picture fades...
(same as verse1)
 
 e|--------------------------------------------------------|
 B|--3----3--3---3----3----3----3----3--3---3--------------|
 G|-----2------2---------2---------2------2----------------|
 D|-4/5------4-----2-4/5-----2-4/5------4-----2------------|
 A|--------------------------------------------------------|
 E|--------------------------------------------------------|

refrain3
And you say go slow
[G] [A] [F#m] [G]  
 
 e|--------------------------------------|
 B|--3------5-----5----2------3-----5----|
 G|------4------6---6------2------4---4--|
 D|----5------7----------4------5--------|
 A|--------------------------------------|
 E|--3------5----------2------3----------|

I fall behind
[G] [A] [F#m]  
 
 e|--3-------------------------2-0-------|
 B|---------5-----5----2-----2-----------|
 G|------4------6---6------2-------------|
 D|----5------7----------4---------------|
 A|--------------------------------------|
 E|--3------5----------2-------2-2-------|

The drum beats out of time
[G] [A] [F#m] [G]  
 
 e|---------------------------------|
 B|--3------5-----5----2------------|
 G|------4------6---6------2--------|
 D|----5------7----------4----------|
 A|---------------------------------|
 E|--3------5----------2------3-----|

chorus
If you're lost you can look and you will find me
[A] [Bm] [Bm] [A]  
 
 e|---------------------------------------------------|
 B|---------5--------5--------5-----3-----3-------3-2-|
 G|---------------6--------6------------4-------------|
 D|------------7--------7-------------4---------------|
 A|---------------------------------2-------------2-0-|
 E|---------5--------5--------------------------------|

Time after time
[G] [A] [D]  
 
 e|-------------------------------------|
 B|--0-----0-5-----5------3-------------|
 G|------0-------6------2---------------|
 D|----0-------7------0-----------------|
 A|-------------------------4/5-4-2-0---|
 E|--3-------5--------------------------|

If you fall I will catch you I'll be waiting
[A] [Bm] [Bm] [A]  
 
 e|---------------------------------------------------|
 B|---------5--------5--------5-----3-----3-------3-2-|
 G|---------------6--------6------------4-------------|
 D|------------7--------7-------------4---------------|
 A|---------------------------------2-------------2-0-|
 E|---------5--------5--------------------------------|

Time after time
[G] [A] [D]  
 
 e|-------------------------------------|
 B|--0-----0-5-----5------3-------------|
 G|------0-------6------2---------------|
 D|----0-------7------0-----------------|
 A|-------------------------4/5-4-2-0---|
 E|--3-------5--------------------------|

If you fall I will catch you I'll be waiting
[A] [Bm] [Bm] [A]  
 
 e|---------------------------------------------------|
 B|---------5--------5--------5-----3-----3-------3-2-|
 G|---------------6--------6------------4-------------|
 D|------------7--------7-------------4---------------|
 A|---------------------------------2-------------2-0-|
 E|---------5--------5--------------------------------|

Time after time
[G] [A] [D]  
 
 e|-------------------------------------|
 B|--0-----0-5-----5------3-------------|
 G|------0-------6------2---------------|
 D|----0-------7------0-----------------|
 A|-------------------------4/5-4-2-0---|
 E|--3-------5--------------------------|

Time after time mmm...
[G] [A] [D]  
 
 e|-------------------------------------|
 B|--3-----3-5-----5------3-------------|
 G|------4-------6------2---------------|
 D|----5-------7------0-----------------|
 A|-------------------------4/5-4-2-0---|
 E|--3-------5--------------------------|

Time after time Oooh...
[G] [A] [D]  
 
 e|-------------------------------------|
 B|--5-----3-5-----5------3-------------|
 G|------3-------6------2---------------|
 D|----4-------7------0-----------------|
 A|-------------------------4/5-4-2-0---|
 E|--3-------5--------------------------|

Time after time
[G] [A] [D] [Bm] [A] [G]  
 
 e|-------------------------------------|
 B|--3-----3-5-----5------3--3-2-3------|
 G|------4-------6------2---------------|
 D|----5-------7------0-----------------|
 A|--------------------------2-0--------|
 E|--3-------5-------------------3------|

Time after time
G A(hold) D
 
 e|----------------------------10---|
 B|--3-----3-5----------------10----|
 G|------4-------------------11-----|
 D|----5--------------------12------|
 A|------------------------12-------|
 E|--3-------5------------10--------|

| / slide up
| \ slide down
| h hammer-on
| p pull-off
| ~ vibrato
| + harmonic
| x Mute note
===============================================================================

Important: The song above is NOT stored on the Chordie server. The original song is hosted at www.guitartabs.cc. Chordie works as a search engine and provides on-the-fly formatting. Chordie does not index songs against artists'/composers' will. To remove this song please click here.

Text color:
Chord color:
Chord grids: 
Font size:    
Page size: 

A Bm D F#m G
Rate #1 of 9 versions

Login - add to songbook

SHARE PAGE  




You need to log in to post comments