Guitar Tabs, Chords and Lyrics
Major upgrade!! After one year development the new version of Chordie is now online! Please give feedback.


Memorial  Explosions in the Sky

MEMORIAL (Bassline)
As recorded by Explosions In The Sky
(From the 2003 Album THE EARTH IS NOT A COLD DEAD PLACE)
Music by Munaf Rayani, Christopher Hrasky, Michael James, Mark Smith
Arranged by Munaf Rayani, Christopher Hrasky, Michael James, Mark Smith
Transcribed by Mike C
Gtr I (E A D G) - 'Bass 1'
Gtr II (E A D G) - 'Bass 2'
Intro Part I
Q=80 Q=105
12/8
Gtr I
Wx11 W Q Q
 
 |-----------------|----------7--(7)--|
 |-----------------|-------------11---|
 |-----------------|------------------|
 |-----------------|------------------|

Intro Part II
Q Q Q Q Q Q Q Q Q Q Q +Q
 
 |----7-----6--------|----7-----6----------|
 |-------9-----7-----|-------9-----7--(7)--|
 |-0--------------7--|-0-------------------|
 |-------------------|---------------------|

Q H. H +Q H. Q Q
 
 |-----------------|------7-------7--/9----|
 |------------7----|-(7)-------------------|
 |-7S=5------------|-----------------------|
 |-----------------|-----------------------|

W. +W. +W. +H. +Q Q Q
 
 |---------------|----------------|----------------|---------------7--(7)----|
 |---------------|----------------|----------------|------------------11-----|
 |-0-------------|-(0)------------|-(0)------------|-(0)------(0)------------|
 |---------------|----------------|----------------|-------------------------|

Q Q Q Q Q Q Q Q Q Q Q +Q
 
 |----7-----6--------|----7-----6----------|
 |-------9-----7-----|-------9-----7--(7)--|
 |-0--------------7--|-0-------------------|
 |-------------------|---------------------|

Q H. H +Q H. Q Q
 
 |-----------------|------7-------7--/9----|
 |------------7----|-(7)-------------------|
 |-7S=5------------|-----------------------|
 |-----------------|-----------------------|

W. +W.
 
 |---------------|----------------|
 |---------------|----------------|
 |-0-------------|-(0)------------|
 |---------------|----------------|

+W. +H. +Q Q E. +S
 
 |----------------|---------------7--(7)----------|
 |----------------|------------------11--(11)\----|
 |-(0)------------|-(0)------(0)------------------|
 |----------------|-------------------------------|

H. H E +E H. H E +E
 
 |---------4----------|---------9----------|
 |--------------------|--------------------|
 |--------------------|--------------------|
 |-3------------3-(3)S|=5------------5-(5)S|

H. H E +E H +Q Q Q Q
 
 |---------7----------|-----------7--/9--(9)----|
 |--------------------|------------------11-----|
 |--------------------|-------------------------|
 |-3------------3-(3)S|=5----(5)----------------|

+W. H. H Q H. H Q 4x
 
 |--(9)------------||----------9-------|---------9---------||
 |-(11)------------||o-----------------|------------------o||
 |-----------------||o-0------------0--|-0------------0---o||
 |-----------------||------------------|-------------------||

Main Theme Intro
Q=110
[4/4] H. Q +Q Q H H. Q +Q Q H 4x
 
 ||----------9--|-(9)----------|---------9--|-(9)-------------||
 ||o------------|--------------|------------|---------11-----o||
 ||o-0----------|------0--0----|-0----------|------0--(0)----o||
 ||-------------|--------------|------------|-----------------||

Main Theme
Q=115
>
+W +W Wx7 W
 
 |-------------|-------------|------------|------|
 |-(11)--------|-(11)--------|------------|------|
 |--(0)--------|--(0)--------|------------|------|
 |-------------|-------------|------------|------|

Gtr II
W +W W +H. Q W +W
 
 |-----------|-------------|----------|-------------|-----------|---------|
 |-----------|-------------|----------|-------------|-----------|---------|
 |-----------|-------------|----------|----------0S=|=12--------|-(12)----|
 |-10--------|-(10)--------|-7--------|-(7)---------|-----------|---------|

W +W W +W
 
 |-----------|-------------|-----------|---------|
 |-----------|-------------|-----------|---------|
 |-----------|-------------|-----------|---------|
 |-12--------|-(12)--------|-10--------|-(10)----|

W +H. Q W +W
 
 |----------|-------------|-----------|---------|
 |----------|-------------|-----------|---------|
 |----------|----------0S=|=12--------|-(12)----|
 |-7--------|-(7)---------|-----------|---------|

W +W W +W
 
 |-----------|-------------|-----------|---------|
 |-----------|-------------|-----------|---------|
 |-----------|-------------|-----------|---------|
 |-12--------|-(12)--------|-10--------|-(10)----|

W +W W +W
 
 |----------|------------|-----------|---------|
 |----------|------------|-11--------|-(11)----|
 |----------|------------|-----------|---------|
 |-7--------|-(7)--------|-----------|---------|

Q=125
[E] [E] [E] [E] [E] [E] [E] [E] [E] [E] [E] [E] [E] [E] [E] [E]  
 
 ||--------------------------|-------------------------|
 ||o-11-11-11-11-11-11-11-11-|-11-11-11-11-11-11-11-11-|
 ||o--0--0--0--0--0--0--0--0-|--0--0--0--0--0--0--0--0-|
 ||--------------------------|-------------------------|

[E] [E] [E] [E] [E] [E] [E] [E] [E] [E] [E] [E] [E] [E] [E] [E]  
 
 |-------------------------|---------------------------||
 |-14-14-14-14-14-14-14-14-|-14-14-14-14-14-14-14-14--o||
 |--0--0--0--0--0--0--0--0-|--0--0--0--0--0--0--0--0--o||
 |-------------------------|---------------------------||

Theme II
Q=130
12/8
W. +W. W.
 
 |---------------|----------------|-------|
 |---------------|----------------|-------|
 |-7-------------|-(7)------------|-------|
 |-0-------------|-(0)------------|-8-----|

W. +W. W.
 
 |---------------|----------------|-------|
 |---------------|----------------|-------|
 |---------------|----------------|-------|
 |-0-------------|-(0)------------|-5-----|

W. W. W.
 
 |---------------|---------------|-------|
 |---------------|---------------|-------|
 |---------------|---------------|-------|
 |-0-------------|-0-------------|-8-----|

W. W. W.
 
 |---------------|---------------|-------|
 |---------------|---------------|-------|
 |---------------|---------------|-------|
 |-0-------------|-0-------------|-5-----|

[E] [+E] [E] [E] [E] [E] [E] [+E] [E] [+E] [E] [+E]  
 
 ||---------9---9---9---9---9--(9)--9--(9)--9--(9)-|
 ||o-----------------------------------------------|
 ||o-----------------------------------------------|
 ||--0-(0)-(0)-(0)-(0)-(0)-(0)-(0)-(0)-(0)-(0)-(0)-|

[E] [+E] [E] [E] [E] [E] [E] [+E] [E] [+E] [E] [+E] [E] [+E] [E] [E] [E] [E] [E] [+E] [E] [+E] [E] [+E]  
 
 |--------9---9---9---9---9--(9)--9--(9)--9--(9)-|--------9---9---9---9---9--(9)--9--(9)--9--(9)-|
 |-----------------------------------------------|-----------------------------------------------|
 |-----------------------------------------------|-----------------------------------------------|
 |-0-(0)-(0)-(0)-(0)-(0)-(0)-(0)-(0)-(0)-(0)-(0)-|-8-(8)-(8)-(8)-(8)-(8)-(8)-(8)-(8)-(8)-(8)-(8)-|

[E] [+E] [E] [E] [E] [E] [E] [+E] [E] [+E] [E] [+E] [E] [+E] [E] [E] [E] [E] [E] [+E] [E] [+E] [E] [+E]  
 
 |--------9---9---9---9---9--(9)--9--(9)--9--(9)-|--------9---9---9---9---9--(9)--9--(9)--9--(9)-|
 |-----------------------------------------------|-----------------------------------------------|
 |-----------------------------------------------|-----------------------------------------------|
 |-0-(0)-(0)-(0)-(0)-(0)-(0)-(0)-(0)-(0)-(0)-(0)-|-0-(0)-(0)-(0)-(0)-(0)-(0)-(0)-(0)-(0)-(0)-(0)-|

[E] [+E] [E] [E] [E] [E] [E] [+E] [E] [+E] [E] [+E]  
 
 |--------9---9---9---9---9--(9)--9--(9)--9--(9)---||
 |------------------------------------------------o||
 |-0-(0)-(0)-(0)-(0)-(0)-(0)-(0)-(0)-(0)-(0)-(0)--o||
 |-------------------------------------------------||

Q Q Q Q a Q E.. T
 
 ||------9---------9---(9)s11----------|
 ||o----------9------------------9-----|
 ||o-----------------------------------|
 ||--0--(0)--(0)--(0)--(0)-(0)--(0)----|

Q Q Q Q a Q E +E Q Q Q Q Q Q
 
 |-----9---------9---(9)s11-----------|-----9---------9-------------|
 |----------9------------------9--(9)-|---------10--------10--------|
 |------------------------------------|------------------------10---|
 |-0--(0)--(0)--(0)--(0)-(0)--(0)-(0)-|-8--(8)--(8)--(8)--(8)--(8)--|

Q Q Q Q a Q E.. T
 
 |-----9---------9---(9)s11----------|
 |----------9------------------9-----|
 |-----------------------------------|
 |-0--(0)--(0)--(0)--(0)-(0)--(0)----|

Q Q Q Q a Q E +E Q Q Q Q Q Q
 
 |-----9---------9---(9)s11-----------|------------------7----------||
 |----------9------------------9--(9)-|----10------10---------5----o||
 |------------------------------------|-0--(0)--0--(0)--(0)--(0)---o||
 |-0--(0)--(0)--(0)--(0)-(0)--(0)-(0)-|-----------------------------||

Gtr I
Q Q Q Q a Q E.. T
 
 |-----9---------9---(9)s11----------|
 |----------9------------------9-----|
 |-----------------------------------|
 |-0--(0)--(0)--(0)--(0)-(0)--(0)----|

Q Q Q Q a Q E +E Q Q Q Q Q Q
 
 |-----9---------9---(9)s11-----------|-----9---------9--------------|
 |----------9------------------9--(9)-|---------10--------10---------|
 |------------------------------------|------------------------10----|
 |-0--(0)--(0)--(0)--(0)-(0)--(0)-(0)-|-8--(8)--(8)--(8)--(8)--(8)---|

Q Q Q Q a Q E.. T
 
 |-----9---------9---(9)s11----------|
 |----------9------------------9-----|
 |-----------------------------------|
 |-0--(0)--(0)--(0)--(0)-(0)--(0)----|

Q Q Q Q a Q E +E Q Q Q Q Q Q
 
 |-----9---------9---(9)s11-----------|------------------7---------|
 |----------9------------------9--(9)-|----10------10---------5----|
 |------------------------------------|-0--(0)--0--(0)--(0)--(0)---|
 |-0--(0)--(0)--(0)--(0)-(0)--(0)-(0)-|----------------------------|

H.=H
Q Q Q Q a Q E.. T
 
 |-----9---------9---(9)s11----------|
 |----------9------------------9-----|
 |-----------------------------------|
 |-0--(0)--(0)--(0)--(0)-(0)--(0)----|

Q=123
Q Q Q Q a Q E +E Q Q Q Q Q Q
 
 |-----9---------9---(9)s11-----------|-----9---------9--------------|
 |----------9------------------9--(9)-|---------10--------10---------|
 |------------------------------------|------------------------10----|
 |-0--(0)--(0)--(0)--(0)-(0)--(0)-(0)-|-8--(8)--(8)--(8)--(8)--(8)---|

Q Q Q Q a Q E.. T
 
 |-----9---------9---(9)s11----------|
 |----------9------------------9-----|
 |-----------------------------------|
 |-0--(0)--(0)--(0)--(0)-(0)--(0)----|

Q Q Q Q a Q E +E Q Q Q Q Q Q
 
 |-----9---------9---(9)s11-----------|-----9---------9--------------|
 |----------9------------------9--(9)-|---------10--------10---------|
 |------------------------------------|------------------------10----|
 |-0--(0)--(0)--(0)--(0)-(0)--(0)-(0)-|-8--(8)--(8)--(8)--(8)--(8)---|

Q Q Q Q a Q E.. T
 
 |-----9---------9---(9)s11----------|
 |----------9------------------9-----|
 |-----------------------------------|
 |-0--(0)--(0)--(0)--(0)-(0)--(0)----|

Q Q Q Q a Q E +E Q Q Q Q Q Q
 
 |-----9---------9---(9)s11-----------|-----9---------9--------------|
 |----------9------------------9--(9)-|---------10--------10---------|
 |------------------------------------|------------------------10----|
 |-0--(0)--(0)--(0)--(0)-(0)--(0)-(0)-|-8--(8)--(8)--(8)--(8)--(8)---|

Q Q Q Q a Q E.. T
 
 |-----9---------9---(9)s11----------|
 |----------9------------------9-----|
 |-----------------------------------|
 |-0--(0)--(0)--(0)--(0)-(0)--(0)----|

Q Q Q Q a Q E +E Q Q Q Q Q Q
 
 |-----9---------9---(9)s11-----------|------------------7---------|
 |----------9------------------9--(9)-|----10------10---------5----|
 |------------------------------------|-0--(0)--0--(0)--(0)--(0)---|
 |-0--(0)--(0)--(0)--(0)-(0)--(0)-(0)-|----------------------------|

Q Q Q Q a Q E.. T
 
 |-----9---------9---(9)s11----------|
 |----------9------------------9-----|
 |-----------------------------------|
 |-0--(0)--(0)--(0)--(0)-(0)--(0)----|

H=H
Q Q Q Q a Q E +E Q Q Q Q Q Q
 
 |-----9---------9---(9)s11-----------|-----9---------9--------------|
 |----------9------------------9--(9)-|---------10--------10---------|
 |------------------------------------|------------------------10----|
 |-0--(0)--(0)--(0)--(0)-(0)--(0)-(0)-|-8--(8)--(8)--(8)--(8)--(8)---|

Outro
Q=135
Gtr II
S S S S S S S S S S S S S S S S S S S S S S S S
 
 ||--------------------------------------------------------------------------|
 ||o-------------------------------------------------------------------------|
 ||o-------------------------------------------------------------------------|
 ||--12-12-12-12-12-12-12-12-12-12-12-12-12-12-12-12-12-12-12-12-12-12-12-12-|

S S S S S S S S S S S S S S S S S S S S S S S S |
 
 |-------------------------------------------------------------------------|
 |-------------------------------------------------------------------------|
 |-------------------------------------------------------------------------|
 |-12-12-12-12-12-12-12-12-12-12-12-12-12-12-12-12-12-12-12-12-12-12-12-12-|

S S S S S S S S S S S S S S S S S S S S S S S S
 
 |-----------------------------------------------------|
 |-----------------------------------------------------|
 |-----------------------------------------------------|
 |-8-8-8-8-8-8-8-8-8-8-8-8-8-8-8-8-8-8-8-8-8-8-8-8S====|

S S S S S S S S S S S S S S S S S S S S S S S S
 
 |-------------------------------------------------------------------------|
 |-------------------------------------------------------------------------|
 |-------------------------------------------------------------------------|
 |-12-12-12-12-12-12-12-12-12-12-12-12-12-12-12-12-12-12-12-12-12-12-12-12-|

S S S S S S S S S S S S S S S S S S S S S S S S |
 
 |-------------------------------------------------------------------------|
 |-------------------------------------------------------------------------|
 |-------------------------------------------------------------------------|
 |-12-12-12-12-12-12-12-12-12-12-12-12-12-12-12-12-12-12-12-12-12-12-12-12S|

S S S S S S S S S S S S S S S S S S S S S S S S
 
 |-----------------------------------------------------||
 |----------------------------------------------------o||
 |----------------------------------------------------o||
 |=5-5-5-5-5-5-5-5-5-5-5-5-5-5-5-5-5-5-5-5-5-5-5-5-----||

Q=130
H. H. H. H. H. H.
 
 ||------------------|-----------------|---------------|
 ||o-----------------|-----------------|---------------|
 ||o-----------------|-----------------|---------------|
 ||--0-------0-------|-0-------0-------|-8-------8-----|

H. H. H. H. H. H.
 
 |-----------------|-----------------|----------------||
 |-----------------|-----------------|---------------o||
 |-----------------|-----------------|---------------o||
 |-0-------0-------|-0-------0-------|-5-------5------||

Q=120
>
W. +W. +W. W H
 
 |---------------|----------------|----------------|---------------*|
 |---------------|----------------|----------------|---------------*|
 |---------------|----------------|----------------|---------------*|
 |-0-------------|-(0)------------|-(0)------------|---------------*|

Duration Legend
 
 ---------------
 W - whole; H - half; Q - quarter; E - 8th; S - 16th; T - 32nd; X - 64th; a - acciaccatura

+ - note tied to previous; . - note dotted; .. - note double dotted
Uncapitalized letters represent notes that are staccato (1/2 duration)
Irregular groupings are notated above the duration line
Duration letters will always appear directly above the note/fret number it represents the
duration for. Duration letters with no fret number below them represent rests. Multi-
bar rests are notated in the form Wxn, where n is the number of bars to rest for. Low
melody durations appear below the staff
Tablature Legend
 
 ----------------

h - hammer-on
p - pull-off
b - bend
pb - pre-bend
r - bend release (if no number after the r, then release immediately)
/\ - slide into or out of (from/to "nowhere")
s - legato slide
S - shift slide
- natural harmonic
(n) - artificial harmonic
n(n) - tapped harmonic
~ - vibrato
tr - trill
T - tap
TP - trem. picking
PM - palm muting
\n/ - tremolo bar dip; n = amount to dip
\n - tremolo bar down
n/ - tremolo bar up
/n\ - tremolo bar inverted dip
= - hold bend; also acts as connecting device for hammers/pulls
- volume swell (louder/softer)
x - on rhythm slash represents muted slash
o - on rhythm slash represents single note slash
Misc Legend
 
 -----------

| - bar
|| - double bar
||o - repeat start
o|| - repeat end
*| - double bar (ending)
: - bar (freetime)
$ - Segno
& - Coda
Tempo markers - = BPM(8/16=s8/s16), where s8 = swing 8ths, s16 = swing 16ths
***************************************************************************************
* Generated using Power Tab Editor by Brad Larsen - http://powertab.guitarnetwork.org *
***************************************************************************************

Important: The song above is NOT stored on the Chordie server. The original song is hosted at www.guitartabs.cc. Chordie works as a search engine and provides on-the-fly formatting. Chordie does not index songs against artists'/composers' will. To remove this song please click here.

Text color:
Chord color:
Chord grids: 
Font size:    
Page size: 

E
Rate #1 of 1 versions

Jango Player

Login - add to songbook

SHARE PAGE  




You need to log in to post comments