Guitar Tabs, Chords and Lyrics
Server problems seems to be fixed. Chordie has been experiencing problems with songs disappearing. These issues now seems to be fixed, but still verifying the fix. If you find anything strange, please email admin@chordie.com.


Star A.D.  Faith No More

_____________________
/ Faith No More / "A.D." is a shortening for "After Death."
/ Star A.D. / When asked if the song was a reference to Kurt
/ King for a Day... / Cobain Mike Patton said: "God no! It's about a
/____________________/ phenomenon. And if that guy happened to be one, I don't
know. It's one of those things that happen; it's a Vegas
thing. What could be more shameful than having to change your colostomy bag on
stage?! Vegas is great, though. I love it. Welcome to America."
[A]Intro
[4/4]  
 
 |-----------------|--------------------|
 |-----------------|-------5-7---7-5----|
 |-0-----3---5-6---|---7-------------7--|
 |-----------------|--------------------|

[B] 
[3/4] 3x
 
 ||----------------------||---------------------|
 ||o-----------0--1--2--o||-----------0--2------|
 ||o-0-0--0-3-----------o||-0-0--0-3--------3p0-|
 ||----------------------||---------------------|

[C]"Star A.D."
7x
 
 ||----------------------||---------------------|
 ||o-----------0--1--2--o||-----------0--1--2---|
 ||o-0-0--0-3-----------o||-0-0--0-3----------0-|
 ||----------------------||---------------------|

[D]Bridge
[4/4]  
 
 ||-----------------------|------------------------|----------------------|
 ||o----------------------|------------------------|----------------------|
 ||o-3--4--5\-------------|-3--4--5\-------5-4-3---|-3--4--5\-------------|
 ||-----------------------|----------------------5-|--------------------5-|

1. 2.
 
 |-------------------------||---------------------|
 |---------------7--5-----o||---------------------|
 |-3--4--5\-----------7-5-o||-3--4--5--6--7---7\--|
 |-----------/5------------||---------------------|

[E]"Star A.D."
[3/4] 3x
 
 ||----------------------||---------------------|
 ||o-----------0--1--2--o||------Break----------|
 ||o-0-0--0-3-----------o||---------------------|
 ||----------------------||---------------------|

[F]"A little joke that's understood"
8+7x
 
 ||----------------------||--------------------|
 ||o-----------0--1--2--o||-----------0--------|
 ||o-0-0--0-3-----------o||-0-0--0-3-----x\----|
 ||----------------------||--------------------|

[G]Chorus
1.,2.
[4/4] [3/4]  
 
 ||----------------|------------------|-------------------|--------------------||
 ||o---------------|------5-7---7-5---|-----------0--1--2-|-----------0--1--2-o||
 ||o-0----3---5-6--|--7-------------7-|-0-0--0-3----------|-0-0--0-3----------o||
 ||----------------|------------------|-------------------|--------------------||

3.
[4/4]  
 
 |-------------------------|----------12-14-14-14-12-----|
 |----------------12-13-13-|-13-14-14----------------14--|
 |-12-12-12-15-15----------|-----------------------------|
 |-------------------------|-----------------------------|

[B]Saxophone Interlude
[3/4] 4x
 
 ||----------------------||
 ||o-----------0--1--2--o||
 ||o-0-0--0-3-----------o||
 ||----------------------||

[I]Spoken Verse
12x
 
 ||----------------------||
 ||o-----------0--1--2--o||
 ||o-0-0--0-3-----------o||
 ||----------------------||

[J]Guitar/Saxophone Interlude
similar to [D]
[K]Bridge
similar to [D]
[L]"We are forever"
[3/4] 8x
 
 ||----------------------||
 ||o-----------0--1--2--o||
 ||o-0-0--0-3-----------o||
 ||----------------------||

[M]Bass Interlude
[3/4]  
 
 ||--11-11-11-11---x-11---11-11---x-|-11-11-11-11---x-x-x-12------||
 ||o-14-14-14-14---x-14---14-14---x-|-14-14-14-14---x-x-x-14-----o||
 ||o--------------------------------|----------------------------o||
 ||---------------------------------|-----------------------------||

[N]"A little joke that's understood"
3x
 
 ||--11-11-11-11---x-11---11-11---x-|-11-11-11-11---x-x-x-12------||
 ||o-14-14-14-14---x-14---14-14---x-|-14-14-14-14---x-x-x-14-----o||
 ||o--------------------------------|----------------------------o||
 ||---------------------------------|-----------------------------||
 |-11-11-11-11---x-11---11-11---x-|-x------------------|
 |-14-14-14-14---x-14---14-14---x-|-x----Break---------|
 |--------------------------------|-x------------------|
 |--------------------------------|--------------------|

[O] 
similar to [L]
[P]Chorus
similar to [G], then end on:
 
 |----------------|
 |----------------|
 |-12\------------|
 |----------------|

Jon Sebastian Frederiksen - 28th /July /09
Just mail me at Maitinin@gmail.com with questions, comments and corrections!

Important: The song above is NOT stored on the Chordie server. The original song is hosted at www.guitartabs.cc. Chordie works as a search engine and provides on-the-fly formatting. Chordie does not index songs against artists'/composers' will. To remove this song please click here.

Text color:
Chord color:
Chord grids: 
Font size:    
Page size: 

A B C D E F G
Rate #1 of 2 versions

Jango Player

Login - add to songbook

SHARE PAGE  




You need to log in to post comments