Guitar Tabs, Chords and Lyrics
Update 25:10. 13:00. Site is back up running again. Songbooks are recovered. Woring on getting search back up..


Jawbone and the Air-Rifle   The Fall

 
 e|--||-----------------------------------||
 B|--||-----------------------------------||
 G|--||*-----4-2-----4-2-----------------*||
 D|-2||*-4-4-4-2-4-4-4-2-4-4-4-4-4-4-4-2-*||
 A|-2||--4-4-2-0-4-4-2-0-4-4-4-4-4-4-4-2--||
 E|-0||--2-2-----2-2-----2-2-2-2-2-2-2-0--||

 


 


 X4


 

 
 e||-----------------------------------||
 B||-----------------------------------||
 G||*-----4-2-----4-2-----------------*||
 D||*-4-4-4-2-4-4-4-2-4-4-4-4-4-4-4-2-*||
 A||--4-4-2-0-4-4-2-0-4-4-4-4-4-4-4-2--||
 E||--2-2-----2-2-----2-2-2-2-2-2-2-0--||
 e|---------------------------------|
 B|---------------------------------|
 G|---------------------------------|
 D|-7-7-7-7-7-7-7-7-7-7-7-7-7-7-7-7-|
 A|-7-7-7-7-7-7-7-7-7-7-7-7-7-7-7-7-|
 E|-5-5-5-5-5-5-5-5-5-5-5-5-5-5-5-5-|
 e|-5-5-5-5-5-5-5-5-5-5-5-5-5-5-5---|
 B|-5-5-5-5-5-5-5-5-5-5-5-5-5-5-5---|
 G|-6-6-6-6-6-6-6-6-6-6-6-6-6-6-6---|
 D|-7-7-7-7-7-7-7-7-7-7-7-7-7-7-7-2-|
 A|-7-7-7-7-7-7-7-7-7-7-7-7-7-7-7-2-|
 E|-5-5-5-5-5-5-5-5-5-5-5-5-5-5-5-0-|

 


 


 X4


 

 
 e||-----------------------------------||
 B||-----------------------------------||
 G||*-----4-2-----4-2-----------------*||
 D||*-4-4-4-2-4-4-4-2-4-4-4-4-4-4-4-2-*||
 A||--4-4-2-0-4-4-2-0-4-4-4-4-4-4-4-2--||
 E||--2-2-----2-2-----2-2-2-2-2-2-2-0--||

 


 


 X3


 

 
 e||----------------------------------||
 B||----------------------------------||
 G||*-----------------2-2------------*||
 D||*---------2-2---------4-2—-2-4-2-*||
 A||--0-0-4-4-----4-4-----------------||
 E||----------------------------------||
 e|--------------------------|
 B|--------------------------|
 G|-2-2-----2-2-----2--------|
 D|-----4-4-----4-4---4-2—-2-|
 A|------------------------2-|
 E|------------------------0-|

 


 


 X4


 

 
 e||-----------------------------------||
 B||-----------------------------------||
 G||*-----4-2-----4-2-----------------*||
 D||*-4-4-4-2-4-4-4-2-4-4-4-4-4-4-4-2-*||
 A||--4-4-2-0-4-4-2-0-4-4-4-4-4-4-4-2--||
 E||--2-2-----2-2-----2-2-2-2-2-2-2-0--||

 


 


 Slow Down…


 Chorus


 (Ad lib)


 ( Tab from: http://www[(G)].guitartabs.cc/tabs/f/fall/jawbone_and_the_air_rifle_tab.html )


 

 
 e||------------------------------|
 B||------------------------------|
 G||*-------7-7-5-5-3-3-5-5-3-3---|
 D||*-----------------------------|
 A||------------------------------|
 E||------------------------------|

 


 


 x4


 [(E)]  


 

 
 e|-----5-5-4-4-4-5-7-7----------||---|
 B|------------------------------||---|
 G|-----------------------------*||---|
 D|-----------------------------*||-2-|
 A|------------------------------||-2-|
 E|------------------------------||-0-|


Important: The song above is NOT stored on the Chordie server. The original song is hosted at www.guitartabs.cc. Chordie works as a search engine and provides on-the-fly formatting. Chordie does not index songs against artists'/composers' will. To remove this song please click here.

This song is displayed as text-only. Transposing and tuning is only available for chordpro-songs.
Rate #1 of 1 versions

Login - add to songbook

SHARE PAGE  



You need to log in to post comments