Guitar Tabs, Chords and Lyrics
Server problems seems to be fixed. Chordie has been experiencing problems with songs disappearing. These issues now seems to be fixed, but still verifying the fix. If you find anything strange, please email admin@chordie.com.


Champagne for My Real Friends, Real Pain for My Sham Friends  Fall Out Boy

Champagne For My Real Friends, Real Pain For My Sham Friends
From Under The Cork Tree
2005
Submitted by: paramore_fans@yahoo.com
Note to the Tab Voters: please APPROVE THIS!!! this is 100% correct, if you vote this as
I'm going to ask the UG moderators to ban you!!! I'm not kidding!!! I knew who are the
moderators!!! so beware!!! don't mess with me!!! My ranking in top 100 UG contributors
now top 13!!! I'm planning to be top 1 soon before 2007 ends!!! get it? The reason I'm
chords because some people don't know how to read tabs!!!
Tuning: Standard EADGBe
Chords used:
D - xx0232
E - 022100
Am - x02210
C - x32010
G - 320003
[F]Dm[-] - [133211]xx0231
Bb - x13331
G/B - x2x003
A7 - x02020
Intro:
Partick: D--E (x4)
Joe:
 
 e|---------7-7---------7-7------|
 B|-----5-5---------5-5----7h8p7-|
 G|-7-7---------7-7--------------|
 D|------------------------------| (x4)
 A|------------------------------|
 E|------------------------------|
 then: Am--Dm--G--Am

Verse 1:
[Am] You are, a [Dm]getaway car, rush of [G]blood to the [Am]head
[A7] and but me, [Dm]I'm just the covers on [G]top of your [C-G/B]bed
[Am] You steer in a [Dm]rear view mirror, [G]make my head [Am]swim
[A7] I keep you [Dm]warm and not ask you, [G]where-- you've been
Refrain:
With your [Am]backless [Dm]black dress [G]soaked to the s[Am]kin
[Am]When it's said and [Dm]done, we're [G]all scram[Am]bling
And [Am]we're, [Dm]friends[G], we're [Am]friends
[Am]Just be[Dm]cause we move [Bb]u---nits
Chorus 2:
S[C]trike, us like [G/B]matches, 'cuz [F]everyone deserves the flames
We only [Am]do it for the s[G]cars and stories[F], not the fame
At least [C]every[G/B]one is trying, ([F]everyone is shining)
[Am]Everyone de[G]serves the flames, but it's [F]such a shame Such a shame
Interlude:
Partick: D--E (x4)
Joe:
 
 e|---------7-7---------7-7------|
 B|-----5-5---------5-5----7h8p7-|
 G|-7-7---------7-7--------------|
 D|------------------------------| (x4)
 A|------------------------------|
 E|------------------------------|

Verse 2:
[Am] The sounds, of [Dm]this small town, [G]make my ears [Am]hurt (make my ears hurt)
[A7] "Oh yeah, you [Dm]caught me" But I [G]caught you on [C]worse [G/B]oh
[Am] They say, "You [Dm]want a war? You [G]got a war" But who are you [Am]fighting for?
The [Am]tides out the ship's run aground[Dm], We drown, [G]traitors in shallow water
(Repeat refrain and Chorus)
Interlude:
Bass: Pete
 
 G|-------------------------------------------------|
 D|-------------------------------------------------|
 A|-3-3-3-3-2-2-2-2---------0-0-0-0-----------------| (x2)
 E|-----------------1-1-1-1---------3-3-3-3-1-1-1-1-|

Joe:
 
 e|--------0------|
 B|-0--1-----0--1-|
 G|---------------|
 D|---------------|
 A|---------------|
 E|---------------|

Still continuing bass
[C]every[G/B]one is trying, ([F]everyone is shining)
[Am]Everyone de[G]serves the flames, but it's [F]such a shame Such a shame
(Repeat Chorus)

Important: The song above is NOT stored on the Chordie server. The original song is hosted at www.guitartabs.cc. Chordie works as a search engine and provides on-the-fly formatting. Chordie does not index songs against artists'/composers' will. To remove this song please click here.

Text color:
Chord color:
Chord grids: 
Font size:    
Page size: 

A7 Am Bb C Dm F G G/B
Rate #1 of 8 versions

Login - add to songbook

SHARE PAGE  



You need to log in to post comments