Guitar Tabs, Chords and Lyrics
Server problems seems to be fixed. Chordie has been experiencing problems with songs disappearing. These issues now seems to be fixed, but still verifying the fix. If you find anything strange, please email admin@chordie.com.


Nobody Puts Baby in the Corner  Fall Out Boy

 
 -------------------------------------------------------------------------------

NOBODY PUTS BABY IN THE CORNER (Acoustic) - Fall Out Boy
 
 -------------------------------------------------------------------------------

Tabbed by: Tyler J
Email: full_metal_orange AT hotmail DOT com
Nobody Puts Baby In The Corner (Acoustic) ? Fall Out Boy
Tuning: Standard
This is a fantastic song from Fall Out Boy?s Acoustic EP. Unfortunately every other tab
terrible so here?s mine. Enjoy!
Chords Used:
C: - 3 2 0 1 0
Em: 0 2 2 0 0 0
F: 1 3 3 2 1 1
Am: - 0 2 2 1 0
A7sus4: - 0 2 2 3 3
G: 3 2 0 0 3 3
C/B: 0 2 0 2 1 0
Verse:
[C]Drink down that gin and keros[Em]ene
[C]And come spit on bridges wi[Em]th me[F] just to keep us wa[Am]rm
Then light a ma[F]tch to leave [Am]me be
[G] [A7sus4] [F] [G] [C]  
[Am]Light a match to leave me be
Verse:
I keep my jealousy [C/B]clos[C]e [C/B]caus[Am]e it's [C/B]all [C]mine
[C/B] [Am] [C/B] [C]  
An[G]d if[G] you say this makes you happy then I'm not the only one lying
Chorus: (2 Times. Second time with chorus riff.)
[C]Keep quiet
[Am]Nothing comes as easy as you
[Em]Can I lay in your bed all d[F]ay?
I'll be your b[C]est kept secret and your [Am]biggest mistake
The h[Em]and behind this pen relives a [F]failure everyday
Verse:
I keep my jealousy [C/B]clos[C]e [C/B]caus[Am]e it's [C/B]all [C]mine
[C/B] [Am] [C/B] [C]  
A[G]nd if [G]you say this makes you happy then I'm not the only one lying
Verse: (Use Verse Riff on the first ?F? Chord)
[C]Drink down that gin and keros[Em]ene
[C]And come spit on bridges wi[Em]th me[F] just to keep us wa[Am]rm
Then light a ma[F]tch to leave me [Am]be
[G] [A7sus4] [F] [G] [C]  
[Am]Light a match to leave me be
Chorus: (2 Times. Second time with chorus riff.)
Interlude: (Play Verse Riff while other chords are played)
[F] [F] [Am] [F]  
Bridge: (3 Times. Use Bridge Riff Throughout)
[F]So wear me like a locket around your throat
[Am]I'll weigh you down, I'll watch you choke
[F]You look so good in blue
[Am]You look so good in blue
Chorus: (3 Times. First time strum first C chord and don?t strum until second)
(End On an Am Chord)
Chorus Riff:
 
 e|----------------------------------|
 B|------------------8-8-------------|
 G|--0-0-5-5-7-7-5-5-----5-5-7-7-5---|
 D|----------------------------------|
 A|----------------------------------|
 E|----------------------------------|

Verse Riff:
 
 e|-------------------------------0--|
 B|------1---3---1------1---3-3-1----|
 G|--2-2---2---2---2--2---2----------|
 D|----------------------------------|
 A|----------------------------------|
 E|----------------------------------|

Bridge Riff:
 
 e|------------------0-------0-------|
 B|--3-1-3-1-3-1-3-1---1-3-1---1-3-1-|
 G|----------------------------------|
 D|----------------------------------|
 A|----------------------------------|
 E|----------------------------------|


Important: The song above is NOT stored on the Chordie server. The original song is hosted at www.guitartabs.cc. Chordie works as a search engine and provides on-the-fly formatting. Chordie does not index songs against artists'/composers' will. To remove this song please click here.

Text color:
Chord color:
Chord grids: 
Font size:    
Page size: 

A7sus4 Am C C/B Em F G
Rate #2 of 9 versions

Login - add to songbook

SHARE PAGE  



You need to log in to post comments