Guitar Tabs, Chords and Lyrics
Server problems seems to be fixed. Chordie has been experiencing problems with songs disappearing. These issues now seems to be fixed, but still verifying the fix. If you find anything strange, please email admin@chordie.com.


Thriller  Fall Out Boy

intro
 
 E-----0-----------0-----------0-----------0-----------0-----------0---|
 B--10----10-10-10----10-10-10----10-10-10----10-10-10----10-10-10-----|
 G-7--7-----7--7--7-----7--6--6-----6--6--6-----6--0--0-----0--0--0----|
 D---------------------------------------------------------------------|
 A---------------------------------------------------------------------|
 E---------------------------------------------------------------------|
 E----------0-----------0------------||
 B-10-10-10----10-10-10----10-10---o-||
 G---0--6--6-----6--6--6-----6-------||
 D-----------------------------------||
 A---------------------------------o-||
 E-----------------------------------||

Yeah, what you critics said would never happen.
We dedicate this album to anybody, people said couldn't make it.
To the fans that held us down till everybody came around.
Welcome. It's here.
 
 e|--------------------------|---------------------------------|
 B|--------------------------|---------------------------------|
 G|-7-7-7-7--4/14-14-14-11-9-|-7-7-7-7--12-12-12-11--11-11-9-9-|
 D|--------------------------|---------------------------------|x2
 A|-5-5-5-5?-2/12-12-12--9-7-|-5-5-5-5--10-10-10--9---9--9-7-7-|
 E|--------------------------|---------------------------------|

Last s[D]ummer we took threes ac[G]ross the board
But by f[D]all we were a cover story "[G]now in stores"
Make [D]us poster bo[G]ys for your scene
But w[D]e are not making an a[G]cceptance speech
I [D]found the safest [G]place to keep all our old mistakes
D (let ring)
Every dot com's refreshing for a journal update
Refrain
So l[D]ong live the ca[G]r crash hearts
[D]Cry on the couch all the poets come to li[G]fe
Fix me in 4[A]5
long[D] live the car c[G]rash hearts
[D]Cry on the couch all the poets come to li[G]fe
Fix me in 4[A]5
 
 e|-------------------------|--------------------------|
 B|-------------------------|--------------------------|
 G|-------------------------|--------------------------|
 D|------0-0--------0-0-----|---0-0-0-0-0-0-0-0-0-0-0--|
 A|------0-0--------0-0-----|--------------------------|
 E|------2-2--------2-2-----|---2-2-2-2-2-2-2-2-2-2-2--|

I can t[D]ake your problems away with a n[G]od and a wave
Of my h[D]and, 'cause that's just the kind of boy th[G]at I am
The on[D]ly thing I haven't do[G]ne yet is die
And it's [D]me and my plus one at the [G]afterlife
Crowds are w[D]on and lost and won again
But o[G]ur hearts beat for the d[D]iehards
Refrain
So l[D]ong live the ca[G]r crash hearts
[D]Cry on the couch all the poets come to li[G]fe
Fix me in 4[A]5
long[D] live the car c[G]rash hearts
[D]Cry on the couch all the poets come to li[G]fe
Fix me in 4[A]5
D(let ring)
Long live the car crash hearts
(Long live the car crash hearts)
D(let ring
Long live the car crash hearts
(Long live the car crash hearts)
So l[D]ong live the ca[G]r crash hearts
[D]Cry on the couch all the poets come to li[G]fe
Fix me in 4[A]5
 
 e|-------------------------|--------------------------|
 B|-------------------------|--------------------------|
 G|-------------------------|--------------------------|
 D|------0-0--------0-0-----|---0-0-0-0-0-0-0-0-0-0-0--|
 A|------0-0--------0-0-----|--------------------------|
 E|------2-2--------2-2-----|---2-2-2-2-2-2-2-2-2-2-2--|

Young F-O-B.
Lets go

Important: The song above is NOT stored on the Chordie server. The original song is hosted at www.guitartabs.cc. Chordie works as a search engine and provides on-the-fly formatting. Chordie does not index songs against artists'/composers' will. To remove this song please click here.

Text color:
Chord color:
Chord grids: 
Font size:    
Page size: 

A D G
Rate #1 of 8 versions

Jango Player

Login - add to songbook

SHARE PAGE  




You need to log in to post comments