Guitar Tabs, Chords and Lyrics
Server problems seems to be fixed. Chordie has been experiencing problems with songs disappearing. These issues now seems to be fixed, but still verifying the fix. If you find anything strange, please email admin@chordie.com.


Young Volcanoes  Fall Out Boy

I'm not sure if this is 100% correct, but I've been playing it this way and it sounds
alright with the song :)
Verse
 
 E|-------------------------------------------------|
 B|-------------------------------------------------|
 G|----------------------7--------------------------| Repeat this pattern until
 D|--9---------5---------7---------7----------------| the Pre-chorus
 A|--9---------5---------5---------7----------------|
 E|--7---------3-------------------5----------------|

When Rome's in ruins... We are the lions
Pre-chorus
 
 E|---------------------------------------------------------------------------|
 B|---------------------------------------------------------------------------|
 G|--------------------------------------------------7------------------------|
 D|--7---------------------------5-------------------7---------------7--------|
 A|--7---------------------------5-------------------5---------------7--------|
 E|--5---------------------------3-----------------------------------5--------|

Tonight, the foxes hunt the hounds. It's all over now, before it has begun...
Chorus
 
 E|---------------------------------------------------------------|
 B|---------------------------------------------------------------|
 G|--------------7---------------------------7--------------------|
 D|--7---5---7---5---7---5-----------7-------5--------------------|
 A|--7---5---5---5---7---5-----------5-------5--------------------|
 E|--5---3---5-------5---3-----------5----------------------------|

We aaaaare wild, we are like young volcanoes
Bridge/pre-verse
 
 E|------------------------------------------------|
 B|------------------------------------------------|
 G|----------------------7-------------------------|
 D|--9---------5---------7---------7---------------|
 A|--9---------5---------5---------7---------------|
 E|--7---------3-------------------5---------------|

Order:
Verse
Pre-chorus
Chorus
Bridge/pre-verse
Verse
Pre-chorus
Chorus
Bridge/pre-verse x 2
Chorus
Bridge/pre-verse x 2
Chords:
[B]When Rome's [G]in ruins,[D] we are the[A] lions
[B]Free of the [G] coliseu[D]ms[A]
[B]In poisoned [G]places, we[D] are anti-v[A]enom
[B]We're the begin[G]ning of the [D]end[A]
[D]Tonight, the foxes hunt the ho[A]unds
It's all over [B]now, before it has begu[G]n
We've already won
[D]We aa[A]aaare [B]wild[G]
[D]We are lik[A]e young volc[B]anoes[G]
[D]We aa[A]aaare wi[B]ld[G]
[D]Americana,[A] exotica
Do[B] you wanna feel a little [G]beautiful, baby oh
[B]Woah........[G].........[D]...........[A]..
[B]Woah........[G].........[D]...........[A]..
C'm[B]on, make [G]it easy, sa[D]y I never mattered[A]
[B]Run it up [G]the flagpo[D]le[A]
[B]We will teach you[G] how to make b[D]oys next[A] door[B]
[G]Out of asshole[D]s[A]
[D]Tonight, the foxes hunt the ho[A]unds
It's all over [B]now, before it has begu[G]n
We've already won
[D]We aa[A]aaare [B]wild[G]
[D]We are lik[A]e young volc[B]anoes[G]
[D]We aa[A]aaare wi[B]ld[G]
[D]Americana,[A] exotica
Do[B] you wanna feel a little [G]beautiful, baby oh
[B]Woah........[G].........[D]...........[A]..
[B]Woah........[G].........[D]...........[A]..
[B]Woah........[G].........[D]...........[A]..
[B]Woah........[G].........[D]...........[A]..
We aaaaare wild
[D]We are lik[A]e young volc[B]anoes[G]
[D]We aa[A]aaare wi[B]ld[G]
[D]Americana,[A] exotica
Do[B] you wanna feel a little [G]beautiful, baby oh
[B]Woah........[G].........[D]...........[A]..
[B]Woah........[G].........[D]...........[A]..
[B]Woah........[G].........[D]...........[A]..
[B]Woah........[G].........[D]...........[A]..

Important: The song above is NOT stored on the Chordie server. The original song is hosted at www.guitartabs.cc. Chordie works as a search engine and provides on-the-fly formatting. Chordie does not index songs against artists'/composers' will. To remove this song please click here.

Text color:
Chord color:
Chord grids: 
Font size:    
Page size: 

A B D G
Rate #1 of 14 versions

Login - add to songbook

SHARE PAGE  



You need to log in to post comments