Guitar Tabs, Chords and Lyrics
Server problems seems to be fixed. Chordie has been experiencing problems with songs disappearing. These issues now seems to be fixed, but still verifying the fix. If you find anything strange, please email admin@chordie.com.


Acres of Skin   Fear Factory

 
 |----------|---------------------------|---------------------------|
 |----------|---------------------------|---------------------------|
 |----------|---------------------------|---------------------------|
 |----------|---------------------------|---------------------------|
 |----------|---------------------------|---------------------------|
 |----------|---------------------------|---------------------------|
 |----------|-4-3-2-3-2-----------------|-4-3-2-3-2-----------------|

 


 |


 | Gtr II


 

 
 | PM------------| PM------------|

 


 | W E E S S E S S S S S S S S E E S S E S S S S S S S S


 

 
 |----------|---------------------------|---------------------------|
 |----------|---------------------------|---------------------------|
 |----------|---------------------------|---------------------------|
 |----------|---------------------------|---------------------------|
 |----------|---------------------------|---------------------------|
 |----------|---------------------------|---------------------------|
 |----------|-4-3-2-3-2-2-2-2-2-1-1-1-1-|-4-3-2-3-2-2-2-2-2-1-1-1-1-|

 


 


 Gtrs I, II


 \6


 E E S S E H E E S S E. Q E.


 

 
 |---------------------------|------------------|
 |---------------------------|------------------|
 |---------------------------|---------6--------|
 |---------------------------|------------------|
 |---------------------------|---------4--------|
 |---------------------------|------------------|
 |-4-3-2-3-2-----------------|-4-3-2-3----------|

 


 |


 

 
 | PM------------|

 


 | E E S S E S S S S S S S S W


 

 
 |---------------------------|------------------|
 |---------------------------|------------------|
 |---------------------------|------------------|
 |---------------------------|------------------|
 |---------------------------|------------------|
 |---------------------------|------------------|
 |-4-3-2-3-2-2-2-2-2-1-1-1-1-|------------------|

 


 


 E E S S E T T S T T S T T S T T S E E S S E T T S T T S T T S T T S


 

 
 ||------------------------------------|-----------------------------------|
 ||------------------------------------|-----------------------------------|
 ||o-----------------------------------|-----------------------------------|
 ||------------------------------------|-----------------------------------|
 ||o-----------------------------------|-----------------------------------|
 ||--6-5-4-5-4-------------------------|-6-5-4-5-4-------------------------|
 ||--4-3-2-3-2-2-2-2-2-2-2-1-1-1-1-1-1-|-4-3-2-3-2-2-2-2-2-2-2-1-1-1-1-1-1-|

 


 


 E E S S E T T S T T S T T S T T S


 

 
 |-----------------------------------|
 |-----------------------------------|
 |-----------------------------------|
 |-----------------------------------|
 |-----------------------------------|
 |-6-5-4-5-4-------------------------|
 |-4-3-2-3-2-2-2-2-2-2-2-1-1-1-1-1-1-|

 


 


 E E S S E E E S S E E E S S E E E S S E


 

 
 |----------------------||----------------------|
 |----------------------||----------------------|
 |---------------------o||----------------------|
 |----------------------||----------------------|
 |---------------------o||----------------------|
 |-6-5-4-5-4-6-5-4-5-4--||-6-5-4-5-4-6-5-4-5-4--|
 |-4-3-2-3-2-4-3-2-3-2--||-4-3-2-3-2-4-3-2-3-2--|

 


 


 S S S S S S S S S S S S S S S S S S S S S S S S S S S S S S S S


 

 
 |---------------------------------|----------------------------------|
 |---------------------------------|----------------------------------|
 |---------------------------------|----------------------------------|
 |---------------------------------|----------------------------------|
 |---------------------------------|----------------------------------|
 |---------------------------------|----------------------------------|
 |-1-1---1-1-1-1-1-1-1---1-1-1-1-1-|-1-1---1-1-1-1-1-1-1---1-1-1-1-1--|

 


 


 S S S S S S S S S S S S S S S S


 

 
 |---------------------------------|
 |---------------------------------|
 |---------------------------------|
 |---------------------------------|
 |---------------------------------|
 |---------------------------------|
 |-1-1---1-1-1-1-1-1-1---1-1-1-1-1-|

 


 |


 | Gtr II


 | S S S S S S S S S S S S S S S S


 

 
 |---------------------------------|
 |---------------------------------|
 |---------------------------------|
 |---------------------------------|
 |---------------------------------|
 |---------------------------------|
 |-1-1---1-1-1-1-1-1-1---1-1-1-1-1-|

 


 


 S S S S S S S S S S S S S S S S


 

 
 |--------------------------------------------------------------------|
 |--------------------------------------------------------------------|
 |--------------------------------------------------------------------|
 |--------------------------------------------------------------------|
 |--------------------------------------------------------------------|
 |--------------------------------------------------------------------|
 |-1-1---1-1-1-1--1---1---1-----------1-------1-----1-----1-----1-----|

 


 |


 | S S S S S S S S S S S S S S S S


 

 
 |--------------------------------------------------------------------|
 |--------------------------------------------------------------------|
 |--------------------------------------------------------------------|
 |--------------------------------------------------------------------|
 |--------------------------------------------------------------------|
 |--------------------------------------------------------------------|
 |-1-1---1-1-1-1-[1]-[1]-[1]-[1]b1.5-[1]b1.5-[1]b2-[1]b2-[1]b2-[1]b2--|

 


 


 Gtrs I, II


 S S S S S S S S S S S S S S S S S S S S S S S S S S S S S S S S


 

 
 |---------------------------------|----------------------------------|
 |---------------------------------|----------------------------------|
 |---------------------------------|----------------------------------|
 |---------------------------------|----------------------------------|
 |---------------------------------|----------------------------------|
 |---------------------------------|----------------------------------|
 |-2-2---2-2-2-2-2-2-2---2-2-2-2-2-|-2-2---2-2-2-2-2-2-2---2-2-2-2-2--|

 


 


 S S S S S S S S S S S S S S S S S S S S S S S S S S S S S S S S


 

 
 |---------------------------------|----------------------------------|
 |---------------------------------|----------------------------------|
 |---------------------------------|----------------------------------|
 |---------------------------------|----------------------------------|
 |---------------------------------|----------------------------------|
 |---------------------------------|----------------------------------|
 |-2-2---2-2-2-2-2-2-2---2-2-2-2-2-|-2-2---2-2-2-2-2-3-3-3-3-3-3-3-3--|

 


 


 S S S S S S S S S S S S S S S S S S S S S S S S S S S S S S S S


 

 
 |---------------------------------|----------------------------------|
 |---------------------------------|----------------------------------|
 |---------------------------------|----------------------------------|
 |---------------------------------|----------------------------------|
 |---------------------------------|----------------------------------|
 |---------------------------------|----------------------------------|
 |-2-2---2-2-2-2-2-2-2---2-2-2-2-2-|-2-2---2-2-2-2-2-2-2---2-2-2---2--|

 


 


 S S S S S S S S S S S S S S S S S S S S S S S S S S S S S S S S


 

 
 |---------------------------------|----------------------------------|
 |---------------------------------|----------------------------------|
 |---------------------------------|----------------------------------|
 |---------------------------------|----------------------------------|
 |---------------------------------|----------------------------------|
 |---------------------------------|----------------------------------|
 |-2-2---2-2-2-2-2-2-2---2-2-2-2-2-|-2-2---2-2-2-2-2-3-3-3-3-3-3-3-3--|

 


 


 Q Q S S S S S S S S Q Q S S S S S S S S


 

 
 |-------------------------|-------------------------|
 |-------------------------|-------------------------|
 |-------------------------|-------------------------|
 |-------------------------|-------------------------|
 |-------------------------|-------------------------|
 |-/7--/7------------------|-/7--/7------------------|
 |-/5--/5--3-3-3-3-3-3-3-3-|-/5--/5--3-3-3-3-3-3-3-3-|

 


 


 S S S S S S S S S S S S S S S S S S S S S S S S S S S S S S S S


 

 
 |---------------------------------|----------------------------------|
 |---------------------------------|----------------------------------|
 |---------------------------------|----------------------------------|
 |---------------------------------|----------------------------------|
 |---------------------------------|----------------------------------|
 |---------------------------------|----------------------------------|
 |-2-2---2-2-2-2-2-2-2---2-2-2-2-2-|-2-2---2-2-2-2-2-2-2---2-2-2---2--|

 


 


 S S S S S S S S S S S S S S S S S S S S S S S S S S S S S S S S


 

 
 |---------------------------------|----------------------------------|
 |---------------------------------|----------------------------------|
 |---------------------------------|----------------------------------|
 |---------------------------------|----------------------------------|
 |---------------------------------|----------------------------------|
 |---------------------------------|----------------------------------|
 |-2-2---2-2-2-2-2-2-2---2-2-2-2-2-|-2-2---2-2-2-2-2-3-3-3-3-3-3-3-3--|

 


 


 S S S S S S S S S S S S S S S S S S S S S S S S S S S S S S S S


 

 
 |---------------------------------|----------------------------------|
 |---------------------------------|----------------------------------|
 |---------------------------------|----------------------------------|
 |---------------------------------|----------------------------------|
 |---------------------------------|----------------------------------|
 |---------------------------------|----------------------------------|
 |-2-2---2-2-2-2-2-2-2---2-2-2-2-2-|-2-2---2-2-2-2-2-2-2---2-2-2---2--|

 


 


 S S S S S S S S S S S S S S S S S S S S S S S S S S S S S S S S


 

 
 |---------------------------------|----------------------------------|
 |---------------------------------|----------------------------------|
 |---------------------------------|----------------------------------|
 |---------------------------------|----------------------------------|
 |---------------------------------|----------------------------------|
 |---------------------------------|----------------------------------|
 |-2-2---2-2-2-2-2-2-2---2-2-2-2-2-|-2-2---2-2-2-2-2-3-3-3-3-3-3-3-3--|

 


 


 Q Q S S S S S S S S Q Q S S S S S S S S Q Q S S S S S S S S


 

 
 |-------------------------|-------------------------|--------------------------|
 |-------------------------|-------------------------|--------------------------|
 |-------------------------|-------------------------|--------------------------|
 |-------------------------|-------------------------|--------------------------|
 |-------------------------|-------------------------|--------------------------|
 |-/7--/7------------------|-/7--/7------------------|-/7--/7-------------------|
 |-/5--/5--3-3-3-3-3-3-3-3-|-/5--/5--3-3-3-3-3-3-3-3-|-/5--/5--3-3-3-3-3-3-3-3--|

 


 


 Q Q S S S S S S S S S E. S E. S S S S S S S S


 

 
 |-------------------------||----------------------------|
 |-------------------------||----------------------------|
 |-------------------------||----------------------------|
 |-------------------------||----------------------------|
 |-------------------------||----------------------------|
 |-/7--/7------------------||-6S7--7S10------------------|
 |-/5--/5--3-3-3-3-3-3-3-3-||-4S5--5S=8--3-3-3-3-3-3-3-3-|

 


 


 S E. S E. S S S S S S S S


 

 
 |----------------------------|
 |----------------------------|
 |----------------------------|
 |----------------------------|
 |----------------------------|
 |-6S7--7S10------------------|
 |-4S5--5S=8--3-3-3-3-3-3-3-3-|

 


 


 S E. S E. S S S S S S S S S E. S E. S S S S S S S S


 

 
 |----------------------------|----------------------------|
 |----------------------------|----------------------------|
 |----------------------------|----------------------------|
 |----------------------------|----------------------------|
 |----------------------------|----------------------------|
 |-6S7--7S10------------------|-6S7--7S10------------------|
 |-4S5--5S=8--3-3-3-3-3-3-3-3-|-4S5--5S=8--3-3-3-3-3-3-3-3-|

 


 


 E. E. E E. E. E E. E. E E. E. E E. E. E E. E. E E. E. E E. E. E


 

 
 |-----------------|-----------------|-----------------|-----------------|
 |-----------------|-----------------|-----------------|-----------------|
 |-----------------|-----------------|-----------------|-----------------|
 |-----------------|-----------------|-----------------|-----------------|
 |---------3--2----|---------3--2----|---------3--2----|---------3--2----|
 |-4--5--4-1--0----|-4--5--4-1--0--5-|-4--5--4-1--0----|-4--5--4-1--0--5-|
 |-2--3--3---------|-2--3--3-------3-|-2--3--3---------|-2--3--3-------3-|

 


 


 E. E. E E. E. E E. E. E E. E. E E. E. E E. E. E E. E. E E. E. E


 

 
 |-----------------|-----------------|-----------------|-----------------|
 |-----------------|-----------------|-----------------|-----------------|
 |-----------------|-----------------|-----------------|-----------------|
 |-----------------|-----------------|-----------------|-----------------|
 |---------3--2----|---------3--2----|---------3--2----|---------3--2----|
 |-4--5--4-1--0----|-4--5--4-1--0--5-|-4--5--4-1--0----|-4--5--4-1--0--5-|
 |-2--3--3---------|-2--3--3-------3-|-2--3--3---------|-2--3--3-------3-|

 


 


 S S S S S S S S S S S S S S S S S S S S S S S S S S S S S S S S


 

 
 |---------------------------------|----------------------------------|
 |---------------------------------|----------------------------------|
 |---------------------------------|----------------------------------|
 |---------------------------------|----------------------------------|
 |---------------------------------|----------------------------------|
 |---------------------------------|----------------------------------|
 |-1-1---1-1-1-1-1-1-1---1-1-1-1-1-|-1-1---1-1-1-1-1-1-1---1-1-1---1--|

 


 


 S S S S S S S S S S S S S S S S


 

 
 |---------------------------------|
 |---------------------------------|
 |---------------------------------|
 |---------------------------------|
 |---------------------------------|
 |---------------------------------|
 |-1-1---1-1-1-1-1-1-1---1-1-1-1-1-|

 


 |


 | Gtr II


 | S S S S S S S S S S S S S S S S


 

 
 |---------------------------------|
 |---------------------------------|
 |---------------------------------|
 |---------------------------------|
 |---------------------------------|
 |---------------------------------|
 |-1-1---1-1-1-1-1-1-1---1-1-1-1-1-|

 


 


 S S S S S S S S S S S S S S S S


 

 
 |--------------------------------------------------------------------|
 |--------------------------------------------------------------------|
 |--------------------------------------------------------------------|
 |--------------------------------------------------------------------|
 |--------------------------------------------------------------------|
 |--------------------------------------------------------------------|
 |-1-1---1-1-1-1--1---1---1-----------1-------1-----1-----1-----1-----|

 


 |


 | S S S S S S S S S S S S S S S S


 

 
 |--------------------------------------------------------------------|
 |--------------------------------------------------------------------|
 |--------------------------------------------------------------------|
 |--------------------------------------------------------------------|
 |--------------------------------------------------------------------|
 |--------------------------------------------------------------------|
 |-1-1---1-1-1-1-[1]-[1]-[1]-[1]b1.5-[1]b1.5-[1]b2-[1]b2-[1]b2-[1]b2--|

 


 


 Gtrs I, II


 S S S S S S S S S S S S S S S S S S S S S S S S S S S S S S S S


 

 
 |---------------------------------|----------------------------------|
 |---------------------------------|----------------------------------|
 |---------------------------------|----------------------------------|
 |---------------------------------|----------------------------------|
 |---------------------------------|----------------------------------|
 |---------------------------------|----------------------------------|
 |-2-2---2-2-2-2-2-2-2---2-2-2-2-2-|-2-2---2-2-2-2-2-2-2---2-2-2---2--|

 


 


 S S S S S S S S S S S S S S S S S S S S S S S S S S S S S S S S


 

 
 |---------------------------------|----------------------------------|
 |---------------------------------|----------------------------------|
 |---------------------------------|----------------------------------|
 |---------------------------------|----------------------------------|
 |---------------------------------|----------------------------------|
 |---------------------------------|----------------------------------|
 |-2-2---2-2-2-2-2-2-2---2-2-2-2-2-|-2-2---2-2-2-2-2-3-3-3-3-3-3-3-3--|

 


 


 [ Tab from: bttp://www.guitartabs.cc/tabs/f/fear_factory/acres_of_skin_tab_ver_2.btml ] 


 S S S S S S S S S S S S S S S S S S S S S S S S S S S S S S S S


 

 
 |---------------------------------|----------------------------------|
 |---------------------------------|----------------------------------|
 |---------------------------------|----------------------------------|
 |---------------------------------|----------------------------------|
 |---------------------------------|----------------------------------|
 |---------------------------------|----------------------------------|
 |-2-2---2-2-2-2-2-2-2---2-2-2-2-2-|-2-2---2-2-2-2-2-2-2---2-2-2---2--|

 


 


 S S S S S S S S S S S S S S S S S S S S S S S S S S S S S S S S


 

 
 |---------------------------------|----------------------------------|
 |---------------------------------|----------------------------------|
 |---------------------------------|----------------------------------|
 |---------------------------------|----------------------------------|
 |---------------------------------|----------------------------------|
 |---------------------------------|----------------------------------|
 |-2-2---2-2-2-2-2-2-2---2-2-2-2-2-|-2-2---2-2-2-2-2-3-3-3-3-3-3-3-3--|

 


 


 Q Q S S S S S S S S Q Q S S S S S S S S Q Q S S S S S S S S


 

 
 |-------------------------|-------------------------|--------------------------|
 |-------------------------|-------------------------|--------------------------|
 |-------------------------|-------------------------|--------------------------|
 |-------------------------|-------------------------|--------------------------|
 |-------------------------|-------------------------|--------------------------|
 |-/7--/7------------------|-/7--/7------------------|-/7--/7-------------------|
 |-/5--/5--3-3-3-3-3-3-3-3-|-/5--/5--3-3-3-3-3-3-3-3-|-/5--/5--3-3-3-3-3-3-3-3--|

 


 


 Q Q S S S S S S S S S E. S E. S S S S S S S S


 

 
 |-------------------------||----------------------------|
 |-------------------------||----------------------------|
 |-------------------------||----------------------------|
 |-------------------------||----------------------------|
 |-------------------------||----------------------------|
 |-/7--/7------------------||-6S7--7S10------------------|
 |-/5--/5--3-3-3-3-3-3-3-3-||-4S5--5S=8--3-3-3-3-3-3-3-3-|

 


 


 S E. S E. S S S S S S S S


 

 
 |----------------------------|
 |----------------------------|
 |----------------------------|
 |----------------------------|
 |----------------------------|
 |-6S7--7S10------------------|
 |-4S5--5S=8--3-3-3-3-3-3-3-3-|

 


 


 S E. S E. S S S S S S S S S E. S E. S S S S S S S S


 

 
 |----------------------------|----------------------------|
 |----------------------------|----------------------------|
 |----------------------------|----------------------------|
 |----------------------------|----------------------------|
 |----------------------------|----------------------------|
 |-6S7--7S10------------------|-6S7--7S10------------------|
 |-4S5--5S=8--3-3-3-3-3-3-3-3-|-4S5--5S=8--3-3-3-3-3-3-3-3-|

 


 


 E. E. E E. E. E E. E. E E. E. E E. E. E E. E. E E. E. E E. E. E


 

 
 |-----------------|-----------------|-----------------|-----------------|
 |-----------------|-----------------|-----------------|-----------------|
 |-----------------|-----------------|-----------------|-----------------|
 |-----------------|-----------------|-----------------|-----------------|
 |---------3--2----|---------3--2----|---------3--2----|---------3--2----|
 |-4--5--4-1--0----|-4--5--4-1--0--5-|-4--5--4-1--0----|-4--5--4-1--0--5-|
 |-2--3--3---------|-2--3--3-------3-|-2--3--3---------|-2--3--3-------3-|

 


 


 E. E. E E. E. E E. E. E E. E. E E. E. E E. E. E E. E. E E. E. E


 

 
 |-----------------|-----------------|-----------------|-----------------|
 |-----------------|-----------------|-----------------|-----------------|
 |-----------------|-----------------|-----------------|-----------------|
 |-----------------|-----------------|-----------------|-----------------|
 |---------3--2----|---------3--2----|---------3--2----|---------3--2----|
 |-4--5--4-1--0----|-4--5--4-1--0--5-|-4--5--4-1--0----|-4--5--4-1--0--5-|
 |-2--3--3---------|-2--3--3-------3-|-2--3--3---------|-2--3--3-------3-|

 


 


 Gtr III


 Q Q E. Q +S Q Q E. Q +S


 

 
 |----------------------|----------------------|
 |----------------------|----------------------|
 |----------------------|----------------------|
 |---------10-----------|---------10-----------|
 |-10--10------10--(10)-|-11--10------10--(10)-|
 |----------------------|----------------------|
 |--8-------------------|--9-------------------|

 


 


 Q Q E. Q +S Q Q Q Q


 

 
 |----------------------|----------------|
 |----------------------|----------------|
 |----------------------|----------------|
 |---------10-----------|----------------|
 |-13--10------10--(10)-|-8--10--6--10---|
 |----------------------|----------------|
 |-11-------------------|-6------4-------|

 


 


 Q Q E. Q +S Q Q E. Q +S


 

 
 |----------------------|----------------------|
 |----------------------|----------------------|
 |----------------------|----------------------|
 |---------10-----------|---------10-----------|
 |-10--10------10--(10)-|-11--10------10--(10)-|
 |----------------------|----------------------|
 |--8-------------------|--9-------------------|

 


 


 Q Q E. Q +S Q Q Q Q


 

 
 |----------------------|----------------|
 |----------------------|----------------|
 |----------------------|----------------|
 |---------10-----------|----------------|
 |-13--10------10--(10)-|-8--10--6--10---|
 |----------------------|----------------|
 |-11-------------------|-6------4-------|

 


 


 Q E E E. S +Q Q E E E. S +Q


 

 
 |------------------------------|------------------------------|
 |------------------------------|------------------------------|
 |----[12]-[12]------[12]-(12)--|----[12]-[12]------[12]-(12)--|
 |--------------[12]------------|--------------[12]------------|
 |------------------------------|------------------------------|
 |------------------------------|------------------------------|
 |------------------------------|------------------------------|

 


 


 Q E E E. S +E E Q Q Q Q


 

 
 |----------------------------------|--------------------|
 |----------------------------------|--------------------|
 |----[12]-[12]------[12]-(12)------|--------------------|
 |--------------[12]-----------[12]-|--------------------|
 |----------------------------------|-[13]-----[10]------|
 |----------------------------------|--------------------|
 |----------------------------------|--------------------|

 


 


 Q E E E. S +Q Q E E E. S +Q


 

 
 |------------------------------|------------------------------|
 |------------------------------|------------------------------|
 |----[12]-[12]------[12]-(12)--|----[12]-[12]------[12]-(12)--|
 |--------------[12]------------|--------------[12]------------|
 |------------------------------|------------------------------|
 |------------------------------|------------------------------|
 |------------------------------|------------------------------|

 


 


 Q E E E. S +E E Q Q Q Q


 

 
 |----------------------------------|--------------------|
 |----------------------------------|--------------------|
 |----[12]-[12]------[12]-(12)------|--------------------|
 |--------------[12]-----------[12]-|--------------------|
 |----------------------------------|-[13]-----[10]------|
 |----------------------------------|--------------------|
 |----------------------------------|--------------------|

 


 


 Gtrs I, II


 S E S S E S S S S S S S S S


 

 
 |----------------------------------------------|
 |----------------------------------------------|
 |----------------------------------------------|
 |----------------------------------------------|
 |-5-5-5---5--5------5---5--5-5---5----5--5-5-5-|
 |-3-3-3---3--3------3---3--3-3---3----3--3-3-3-|
 |----------------------------------------------|

 


 |


 | Gtr III


 | Q E E E. S +Q


 

 
 |----------------------------------------------|
 |----------------------------------------------|
 |-------[12]---[12]------------[12]-(12)-------|
 |---------------------[12]---------------------|
 |----------------------------------------------|
 |----------------------------------------------|
 |----------------------------------------------|

 


 


 S E S S E S S S S S S S S S


 

 
 |----------------------------------------------|
 |----------------------------------------------|
 |----------------------------------------------|
 |----------------------------------------------|
 |-6-6-6---6--6------6---6--6-6---6----6--6-6-6-|
 |-4-4-4---4--4------4---4--4-4---4----4--4-4-4-|
 |----------------------------------------------|

 


 |


 | Q E E E. S +Q


 

 
 |----------------------------------------------|
 |----------------------------------------------|
 |-------[12]---[12]------------[12]-(12)-------|
 |---------------------[12]---------------------|
 |----------------------------------------------|
 |----------------------------------------------|
 |----------------------------------------------|

 


 


 S E S S E S S S S S S S S S


 

 
 |-------------------------------------------------|
 |-------------------------------------------------|
 |-------------------------------------------------|
 |-3-3-3---3--3------3---3--3-3---3----3--3---3--3-|
 |-1-1-1---1--1------1---1--1-1---1----1--1---1--1-|
 |-------------------------------------------------|
 |-------------------------------------------------|

 


 |


 | Q E E E. S +E E


 

 
 |-------------------------------------------------|
 |-------------------------------------------------|
 |-------[12]---[12]------------[12]-(12)----------|
 |---------------------[12]-----------------[12]---|
 |-------------------------------------------------|
 |-------------------------------------------------|
 |-------------------------------------------------|

 


 


 E. S S S S S E. S S S S S


 

 
 |-------------------------------|
 |-------------------------------|
 |-------------------------------|
 |-------------------------------|
 |---3--3-3-3-3-3----------------|
 |---1--1-1-1-1-1---6--6-6-4-6-6-|
 |------------------4--4-4-6-4-4-|

 


 |


 | Q Q Q Q


 

 
 |-------------------------------|
 |-------------------------------|
 |-------------------------------|
 |-------------------------------|
 |-[13]-----------[10]-----------|
 |-------------------------------|
 |-------------------------------|

 


 


 S E S S E S S S S S S S S S


 

 
 |----------------------------------------------|
 |----------------------------------------------|
 |----------------------------------------------|
 |----------------------------------------------|
 |-5-5-5---5--5------5---5--5-5---5----5--5-5-5-|
 |-3-3-3---3--3------3---3--3-3---3----3--3-3-3-|
 |----------------------------------------------|

 


 |


 | Q E E E. S +Q


 

 
 |----------------------------------------------|
 |----------------------------------------------|
 |-------[12]---[12]------------[12]-(12)-------|
 |---------------------[12]---------------------|
 |----------------------------------------------|
 |----------------------------------------------|
 |----------------------------------------------|

 


 


 S E S S E S S S S S S S S S


 

 
 |----------------------------------------------|
 |----------------------------------------------|
 |----------------------------------------------|
 |----------------------------------------------|
 |-6-6-6---6--6------6---6--6-6---6----6--6-6-6-|
 |-4-4-4---4--4------4---4--4-4---4----4--4-4-4-|
 |----------------------------------------------|

 


 |


 | Q E E E. S +Q


 

 
 |----------------------------------------------|
 |----------------------------------------------|
 |-------[12]---[12]------------[12]-(12)-------|
 |---------------------[12]---------------------|
 |----------------------------------------------|
 |----------------------------------------------|
 |----------------------------------------------|

 


 


 S E S S E S S S S S S S S S


 

 
 |-------------------------------------------------|
 |-------------------------------------------------|
 |-------------------------------------------------|
 |-3-3-3---3--3------3---3--3-3---3----3--3---3--3-|
 |-1-1-1---1--1------1---1--1-1---1----1--1---1--1-|
 |-------------------------------------------------|
 |-------------------------------------------------|

 


 |


 | Q E E E. S +E E


 

 
 |-------------------------------------------------|
 |-------------------------------------------------|
 |-------[12]---[12]------------[12]-(12)----------|
 |---------------------[12]-----------------[12]---|
 |-------------------------------------------------|
 |-------------------------------------------------|
 |-------------------------------------------------|

 


 


 E. S S S S S E. S S S S S


 

 
 |-------------------------------|
 |-------------------------------|
 |-------------------------------|
 |-------------------------------|
 |---3--3-3-3-3-3----------------|
 |---1--1-1-1-1-1---6--6-6-4-6-6-|
 |------------------4--4-4-6-4-4-|

 


 |


 | Q Q Q Q


 

 
 |-------------------------------|
 |-------------------------------|
 |-------------------------------|
 |-------------------------------|
 |-[13]-----------[10]-----------|
 |-------------------------------|
 |-------------------------------|

 


 


 E. E. E E. E. E E. E. E E. E. E E. E. E E. E. E E. E. E E. E. E


 

 
 |-----------------|-----------------|-----------------|-----------------|
 |-----------------|-----------------|-----------------|-----------------|
 |-----------------|-----------------|-----------------|-----------------|
 |-----------------|-----------------|-----------------|-----------------|
 |---------3--2----|---------3--2----|---------3--2----|---------3--2----|
 |-4--5--4-1--0----|-4--5--4-1--0--5-|-4--5--4-1--0----|-4--5--4-1--0--5-|
 |-2--3--3---------|-2--3--3-------3-|-2--3--3---------|-2--3--3-------3-|

 


 


 E. E. E E. E. E E. E. E E. E. E E. E. E E. E. E E. E. E E. E. E


 

 
 |-----------------|-----------------|-----------------|-----------------|
 |-----------------|-----------------|-----------------|-----------------|
 |-----------------|-----------------|-----------------|-----------------|
 |-----------------|-----------------|-----------------|-----------------|
 |---------3--2----|---------3--2----|---------3--2----|---------3--2----|
 |-4--5--4-1--0----|-4--5--4-1--0--5-|-4--5--4-1--0----|-4--5--4-1--0--5-|
 |-2--3--3---------|-2--3--3-------3-|-2--3--3---------|-2--3--3-------3-|

 


 


 E. E. E E. E. E E. E. E E. E. E E. E. E E. E. E E. E. E E. E. E


 

 
 |-----------------|-----------------|-----------------|-----------------|
 |-----------------|-----------------|-----------------|-----------------|
 |-----------------|-----------------|-----------------|-----------------|
 |-----------------|-----------------|-----------------|-----------------|
 |---------3--2----|---------3--2----|---------3--2----|---------3--2----|
 |-4--5--4-1--0--5-|-4--5--4-1--0--5-|-4--5--4-1--0--5-|-4--5--4-1--0--5-|
 |-2--3--3-------3-|-2--3--3-------3-|-2--3--3-------3-|-2--3--3-------3-|

 


 


 E. E. E E. E. E E. E. E E. E. E


 

 
 |-----------------|-----------------|
 |-----------------|-----------------|
 |-----------------|-----------------|
 |-----------------|-----------------|
 |---------3--2----|---------3--2----|
 |-4--5--4-1--0--5-|-4--5--4-1--0--5-|
 |-2--3--3-------3-|-2--3--3-------3-|

 


 


 E. E. E E. E. E E. E. E E S E S E E H..


 

 
 |-----------------|-------------------|----------*|
 |-----------------|-------------------|----------*|
 |-----------------|-------------------|----------*|
 |-----------------|-------------------|----------*|
 |---------3--2----|---------3---------|----------*|
 |-4--5--4-1--0--5-|-4--5--4-1---5---5-|-4--------*|
 |-2--3--3-------3-|-2--3--3-----3---3-|-2--------*|

 


 


 


 Duration Legend


 

 
 ---------------
 W - whole; H - half; Q - quarter; E - 8th; S - 16th; T - 32nd; X - 64th; a - acciaccatura

 


 + - note tied to previous; . - note dotted; .. - note double dotted


 Uncapitalized letters represent notes that are staccato (1/2 duration)


 Irregular groupings are notated above the duration line


 Duration letters will always appear directly above the note/fret number it represents the


 duration for. Duration letters with no fret number below them represent rests. Multi-


 bar rests are notated in the form Wxn, where n is the number of bars to rest for. Low


 melody durations appear below the staff


 


 Tablature Legend


 

 
 ----------------

 


 h - hammer-on


 p - pull-off


 b - bend


 pb - pre-bend


 r - bend release (if no number after the r, then release immediately)


 /\ - slide into or out of (from/to "nowhere")


 s - legato slide


 S - shift slide


 - natural harmonic


 [n] - artificial harmonic


 n(n) - tapped harmonic


 ~ - vibrato


 tr - trill


 T - tap


 TP - trem. picking


 PM - palm muting


 \n/ - tremolo bar dip; n = amount to dip


 \n - tremolo bar down


 n/ - tremolo bar up


 /n\ - tremolo bar inverted dip


 = - hold bend; also acts as connecting device for hammers/pulls


 - volume swell (louder/softer)


 x - on rhythm slash represents muted slash


 o - on rhythm slash represents single note slash


 


 Misc Legend


 

 
 -----------


Important: The song above is NOT stored on the Chordie server. The original song is hosted at www.guitartabs.cc. Chordie works as a search engine and provides on-the-fly formatting. Chordie does not index songs against artists'/composers' will. To remove this song please click here.

This song is displayed as text-only. Transposing and tuning is only available for chordpro-songs.
Rate #1 of 3 versions

Jango Player

Login - add to songbook

SHARE PAGE  




You need to log in to post comments