Guitar Tabs, Chords and Lyrics
Server problems seems to be fixed. Chordie has been experiencing problems with songs disappearing. These issues now seems to be fixed, but still verifying the fix. If you find anything strange, please email admin@chordie.com.


Comfort Me  Feist

Feist - Comfort me
I hope this will help you..
Capo: 5 fret
Intro:
2x
D U D
 
 e|--------------------------------------------------------------------------|
 B|---------3-0---------------3-0-------3-0----------------------------------|
 G|------------2-0-------0h2-2---2-0-------2-0-------------------------------|
 D|-2-2-----------2---0h2-----------2---------2-2-2-2------------------------|
 A|-2-2-2-----------2----------------22---------2-2-2------------------------|
 E|-----0-----------0----------------03---------0-0-0------------------------|

[Em]When you comfort me
[Em]It doesn't bring me comfort actually
[G]When you [A]com[Em/D]fort m[Em]e
[Em]True life in Haiku
[Em]It balances the phrase out of the blue
[G]The meaning's [A]sho[Em/D]wn to [Em]you
(Intro)
[Em]What does s[Am]adness sees
 
 e|---------------|
 B|--------3-0----|
 G|---0h2-2---2-0-|
 D|0h2-----------2|
 A|---------------|
 E|---------------| Em

The mirror has a mirror in its teeth
[Am]That's what sadness sees
 
 e|--------------0|
 B|--------3-0----|
 G|---0h2-2---2-0-|
 D|0h2------------|
 A|---------------|
 E|---------------| Em

[Em]Big sky tiny bird
[Em]end when the paragraph betrays the word
[G]Big sky [A]tiny bird
2x
(e is the most played)
 
 e|-3-0-3--3-0-3-0-3-3-0|
 B|-2-2-2--1-1-1-1-1-1-0|
 G|-2-2-2--2-2-2-2-2-2-0|
 D|-2-2-2--2-2-2-2-2-2-0|
 A|-0-0-0--0-0-0-0-0-0--|
 E|---------------------| Em 

[Em]While you held me up
[Em]I held my calendar out like a cup
[G]While you [A]he[Em/D]ld me [Em]up
[Em]Make it all about me
[Em]I wanna hold the blame to guillotine
[A]Make it all blame free
2x
(e is the most played)
 
 e|-3-0-3--3-0-3-0-3-3-0|
 B|-2-2-2--1-1-1-1-1-1-0|
 G|-2-2-2--2-2-2-2-2-2-0|
 D|-2-2-2--2-2-2-2-2-2-0|
 A|-0-0-0--0-0-0-0-0-0--|
 E|---------------------| Em 

e e e e e e e e e eeee
(na na na...)
(2x)
[Em]  
[Em]  
[G] [A] [Em/D] [Em]  
[Em]  
[Em]  
[A]  
[C]  
 
 e|---------------|
 B|---------------|
 G|---------------|
 D|2-2-2-2--------|
 A|2-0-2-0--------|
 E|0---0----------| (listen for strumming)

[Em]When you comfort me
 
 e|--------------0-|
 B|--------3-0-----|
 G|---0h2-2---2-0--|
 D|0h2-------------|
 A|----------------|
 E|---------------0|

It doesn't bring me comfort actually

Important: The song above is NOT stored on the Chordie server. The original song is hosted at www.guitartabs.cc. Chordie works as a search engine and provides on-the-fly formatting. Chordie does not index songs against artists'/composers' will. To remove this song please click here.

Text color:
Chord color:
Chord grids: 
Font size:    
Page size: 

A Am C Em Em/D G
Rate #1 of 2 versions

Jango Player

Login - add to songbook

SHARE PAGE  



You need to log in to post comments