Guitar Tabs, Chords and Lyrics
Major upgrade!! After one year development the new version of Chordie is now online! Please give feedback.


Drag You Down   Finger Eleven

 
 Eb|-----------|-------|
 Bb|-----------|-------|
 Gb|-----------|-------|
 Db|--7-----5-7|------7|
 Ab|-----------|-------|
 Db|7--10-8----|7-10-8-|

 


 [1] [2+] [3] [+] [4] [1] [2] [34]  


 Verse


 

 
 eb|-------|---------|
 bb|-------|----3-3-3|
 gb|--7-7-7|----x-x-x|
 db|--x-x-x|----1-1-1|
 ab|--5-5-5|---------|
 Db|0------|0h1------|

 


 hammer on


 Pre-chorus


 

 
 eb|-----|----0|
 bb|--5/6|--6--|
 gb|-----|-----|
 db|-----|-----|
 ab|-----|-----|
 Db|0----|5----|

 


 slide


 


 Chorus


 

 
 eb|-------------|-------------|
 bb|-------------|-------------|
 gb|-------------|-------------|
 db|7-7-7-3-3-3-0|7-7-7-5-5-3-3|
 ab|0-0-0-1-1-1-0|5-5-5-3-3-3-3|
 Db|0-0-0-1-1-1-0|5-5-5-3-3-1-1|

 


 


 Bridge


 

 
 eb|-----------|-----------|---------|
 bb|-----------|-----------|---------|
 gb|-----------|-----------|---------|
 db|8-8-8-8-8-8|7-7-7-7-7-7|1-1-1-1-1|
 ab|6-6-6-6-6-6|5-5-5-5-5-5|1-1-1-1-1|
 Db|6-6-6-6-6-6|5-5-5-5-5-5|1-1-1-1-1|

 


 


 Ending lead riff


 

 
 eb|---18------|
 bb|22----22---|
 gb|---------21|
 db|-----------|
 ab|-----------|
 Db|-----------|


Important: The song above is NOT stored on the Chordie server. The original song is hosted at www.guitartabs.cc. Chordie works as a search engine and provides on-the-fly formatting. Chordie does not index songs against artists'/composers' will. To remove this song please click here.

This song is displayed as text-only. Transposing and tuning is only available for chordpro-songs.
Rate #1 of 1 versions

Jango Player

Login - add to songbook

SHARE PAGE  




You need to log in to post comments