Guitar Tabs, Chords and Lyrics
Major upgrade!! After one year development the new version of Chordie is now online! Please give feedback.


One Thing  Finger Eleven

This is my First Tab so go easy and dont get mad, is a really easy song, it's NOT
the official tab, but it sounds good to me!
CAPO 1st FRET in standard tunning...
 
 -------------------------------------------------------------------------------

One Thing - Finger Eleven
 
 -------------------------------------------------------------------------------

Tabbed by:IvanTheOne
Email: ivanorozco10@hotmail.com
Tuning: standard
Intro & First Verse
Restless tonight
Cause I wasted the light
Between both these times
I drew a really thin line
It's nothing I planned
And not that I can
But you should be mine
Across that line
 
 e|-3-----3------0-----0-----8-----8------3-------------------------|
 B|---3-----3------3-----3-----6-----6----3-------------------------|
 G|-----0-----0------0-----0-----0-----0----------------------------|
 D|-----------------------------------------------------------------|
 A|-----------------------------------------------------------------|
 E|-3------------3--------------------------------------------------|

(Chorus:) G Csus7 Esus7 Dsus7 Dsus
If [G]I traded it all
If [Csus7]I gave it all away for [Esus7]one thing
Just [Dsus7]for one thing[Dsus]
If [G]I sorted it out
If [Csus7]I knew all about this o[Esus7]ne thing
Wou[Dsus7]ldn't that be something
Repeat Intro for these 2 verses
I promise I might
Not walk on by
Maybe next time
But not this time
Even though I know
I don't want to know
Yeah I guess I know
I just hate how it sounds
 
 e|-3-----3------0-----0-----8-----8------3-------------------------|
 B|---3-----3------3-----3-----6-----6----3-------------------------|
 G|-----0-----0------0-----0-----0-----0----------------------------|
 D|-----------------------------------------------------------------|
 A|-----------------------------------------------------------------|
 E|-3------------3--------------------------------------------------|

(Chorus x2)
If [G]I traded it all
If [Csus7]I gave it all away for [Esus7]one thing
Just [Dsus7]for one thing[Dsus]
If [G]I sorted it out
If [Csus7]I knew all about this o[Esus7]ne thing
Wou[Dsus7]ldn't that be something
Intro For These 2 verses Again
 
 e|-3-----3------0-----0-----8-----8------3-------------------------|
 B|---3-----3------3-----3-----6-----6----3-------------------------|
 G|-----0-----0------0-----0-----0-----0----------------------------|
 D|-----------------------------------------------------------------|
 A|-----------------------------------------------------------------|
 E|-3------------3--------------------------------------------------|

Even though I know
I don't want to know
Yeah I guess I know
I just hate how it sounds
Even though I know
I don't want to know
Yeah I guess I know
I just hate how it sounds
(Chorus x3)
If [G]I traded it all
If [Csus7]I gave it all away for [Esus7]one thing
Just [Dsus7]for one thing[Dsus]
If [G]I sorted it out
If [Csus7]I knew all about this o[Esus7]ne thing
Wou[Dsus7]ldn't that be something
questions?
ivanorozco10@hotmail.com
or www.myspace.com/ivan_the_one
also on facebook Ivan Orozco

Important: The song above is NOT stored on the Chordie server. The original song is hosted at www.guitartabs.cc. Chordie works as a search engine and provides on-the-fly formatting. Chordie does not index songs against artists'/composers' will. To remove this song please click here.

Text color:
Chord color:
Chord grids: 
Font size:    
Page size: 

Csus7 Dsus Dsus7 Esus7 G
Rate #1 of 3 versions

Jango Player

Login - add to songbook

SHARE PAGE  



You need to log in to post comments