Guitar Tabs, Chords and Lyrics
Server problems seems to be fixed. Chordie has been experiencing problems with songs disappearing. These issues now seems to be fixed, but still verifying the fix. If you find anything strange, please email admin@chordie.com.


Paper Bag  Fiona Apple

All Interpretations and tablature transcription by Chris Anderson(chrism1278@hotmail.com)
VERSE
[EMaj] [CMaj] [GMaj] [B7]  
[/] [/] [/] [/] [/] [/] [/] [/] [/] [/] [/] [/]  
 
 E-------0-------------|-------------------|--------------------|
 B-------0------1------|-----0-------0-----|--Repeat 3 times----|
 G-------1------0------|-----0-------2-----|--Then continue-----|
 D--------------2------|-----0-------1-----|--------------------|
 A-----------3---------|----------2--------|--------------------|
 E-0-------------------|-3-----------------|--------------------|

[F7sus2] [Emin] [A7]  
[/] [/] [/] [/] [/] [/] [/] [/] [/] [/] [/] [/]  
 
 E---------------------|-------------------|--------------------|
 B-------1---------0---|-2---2----2----2---|--------------------|
 G-------0---------0---|-0---0----0----0---|--------------------|
 D-------1---------0---|-2---2----2----2---|--------------------|
 A---------------------|-0---0----0----0---|--------------------|
 E-1----------0--------|-------------------|--------------------|

[EMaj] [CMaj] [GMaj] [B7]  
[/] [/] [/] [/] [/] [/] [/] [/] [/] [/] [/] [/]  
 
 E-------0-------------|-------------------|--------------------|
 B-------0-------1-----|-----0-------0-----|----Repeat 2 times--|
 G-------1-------0-----|-----0-------2-----|----Then continue---|
 D---------------2-----|-----0-------1-----|--------------------|
 A------------3--------|----------2--------|--------------------|
 E-0-------------------|-3-----------------|--------------------|

[EMaj] [CMaj] [GMaj] [F7sus2] [Emin] [A7] 
[/] [/] [/] [/] [/] [/] [/] [/] [/] [/] [/] [/]  
 
 E-------0-------------|-------------------|--------------------|
 B-------0-------1-----|-----0---------1---|-----0--------2-----|
 G-------1-------0-----|-----0---------0---|-----0--------0-----|
 D---------------2-----|-----0---------1---|-----0--------2-----|
 A------------3--------|-------------------|----------0---------|
 E-0-------------------|-3--------1--------|-0------------------|

[F7sus2]  
[/] [/] [/] [/] [/] [/] [/] [/] [/] [/] [/] [/]  
 
 E---------------------|-------------------|--------------------|
 B-1-----1----1----1---|-------------------|--------------------|
 G-0-----0----0----0---|-Proceed to--------|--------------------|
 D-1-----1----1----1---|--Chorus-----------|--------------------|
 A-0-----0----0----0---|-------------------|--------------------|
 E-1-----1----1----1---|-------------------|--------------------|

*****CHORUS*****
[GMaj] [CMaj7] [F7sus2] [GMaj] [GMaj] [CMaj7] 
[/] [/] [/] [/] [/] [/] [/] [/] [/] [/] [/] [/]  
 
 E---------------------|-------------------|--------------------|
 B-0-----0----0----0---|-1---1----0----0---|-0---0----0---0-----|
 G-0-----0----0----0---|-0---0----0----0---|-0---0----0---0-----|
 D-0-----0----2----2---|-1---1----0----0---|-0---0----2---2-----|
 A-2-----2----3----3---|-0---0----2----2---|-2---2----3---3-----|
 E-3-----3-------------|-1---1----3----3---|-3---3--------------|

[F7sus2] [GMaj] [CMaj7] [F7sus2] [GMaj] 
[/] [/] [/] [/] [/] [/] [/] [/] [/] [/] [/] [/]  
 
 E---------------------|-------------------|--------------------|
 B-1-----1----1----1---|-0---0----0----0---|-1---1----0---0-----|
 G-0-----0----0----0---|-0---0----0----0---|-0---0----0---0-----|
 D-1-----1----1----1---|-0---0----2----2---|-1---1----0---0-----|
 A-0-----0----0----0---|-2---2----3----3---|-0---0----2---2-----|
 E-1-----1----1----1---|-3---3-------------|-1---1----3---3-----|

[Emin7] [A7] [F7sus2]  
[/] [/] [/] [/] [/] [/] [/] [/] [/] [/] [/] [/]  
 
 E---------------------|-------------------|--------------------|
 B-3-----3----2----2---|-1---1----1----1---|--------------------|
 G-0-----0----0----0---|-0---0----0----0---|--------------------|
 D-2-----2----2----2---|-1---1----1----1---|--------------------|
 A-2-----2----0----0---|-0---0----0----0---|--------------------|
 E-0-----0-------------|-1---1----1----1---|--------------------|

Fill Between First Chorus and 2nd Verse
[/] [/] [/] [/] [/] [/] [/] [/] [/] [/] [/] [/]  
 
 E---------------------|-------------------|--------------------|
 B-0--1--0--1--0--1-0-1|-------------------|--------------------|
 G-0--0--0--0--0--0-0-0|-------------------|--------------------|
 D-0--1--0--1--0--1-0-1|-------------------|--------------------|
 A---------------------|-------------------|--------------------|
 E---------------------|-------------------|--------------------|


Important: The song above is NOT stored on the Chordie server. The original song is hosted at www.guitartabs.cc. Chordie works as a search engine and provides on-the-fly formatting. Chordie does not index songs against artists'/composers' will. To remove this song please click here.

Text color:
Chord color:
Chord grids: 
Font size:    
Page size: 

A7 B7 Cmaj Cmaj7 Emaj Emin Emin7 F7sus2 Gmaj
Rate #2 of 8 versions

Jango Player

Login - add to songbook

SHARE PAGE  



You need to log in to post comments