Guitar Tabs, Chords and Lyrics
Major upgrade!! After one year development the new version of Chordie is now online! Please give feedback.


100 Years  Five for Fighting

Years down one octave for easier play. ENJOY!
Tabbed by: unkn0wn6
Tuning: EADGBE (Standard)
okay. this tab is a combination of all the tabs that i got online plus a little of my
own hearing. this is my first tab so go easy on me!
Intro:
 
 ||---------3-3---------------------------------------|
 ||-----------------0----1----------1--0--1--3---------|
 ||------0---------------0-------0-----------------0---|
 ||----------------------------------------------------|
 ||---------------------------3--------3--------3------|
 ||---3--------3------3--------------------------------|
 ||---------3--3---------------------------------------|
 ||-----------------0----1----------1--0--1--3--1--0---|
 ||------0---------------0-------0-----------------0---|
 ||---------------------------0--------0--------0------|
 ||---0--------0------0--------------------------------|
 ||----------------------------------------------------|
 ||------3-----3-----------------------------------0---|
 ||----------------3-----0----------0-----0--1--3------|
 ||---------0------0-----0-------0--------0--------0---|
 ||---------------------------2--------2--------2------|
 ||---2--------2------2--------------------------------|
 ||----------------------------------------------------|
 ||----------------------------------------------------|
 ||---------0--0---0-----0----------0--3-----3---------|
 ||------0-----0---0-----0-------2-----0-----------0---|
 ||---------------------------0--------------4---------|
 ||---0--------0------0-------------------5-----5------|
 ||----------------------------------------------------|

Verse I: (repeat intro in background)
I'm 15 for a moment
Caught in between 10 and 20
And I'm just dreaming
Counting the ways to where you are
Verse II: (repeat intro in background)
I'm 22 for a moment
She feels better than ever
And we're on fire
Making our way back from Mars
Chorus: (easier playing chords)
[G]15... [D]there's still time for yo[C(add9)]u
Time to b[D]uy and time to lose[G]
15...[C(add9)]there's never a[Em7] wis[D]h better than[C(add9)] this
When you only got 100 years to live...
Main tune in background after chorus:
 
 ||---3-3--3---3222--0---3-3-2-3----------------------|
 ||---3-3---3---3333--3---3-3-3-3----------------------|
 ||---0-0---0---0222------2-2-2-0----------------------|
 ||---0-2---2---2000--2---0-0-0-0----------------------|
 ||---2-3---3---3-----3--------(2)---------------------|
 ||----------------------------(3)---------------------|

OR
[G/B] [G5/C] [D]  
[G/B] [C(add9)] [GGDG]  
Verse III: (play chords)
[G]I'm 33 for[C] a moment
[Am7]Still the man but[D7sus] you see I'm a they
[G/B]A kid on the [Em]way
[Am7]A family on my min[Dsus]d
 
 ||-------3-3-------------------------------------------------|
 ||-------------0--1-----1--0--1--3----------------------------|
 ||----0--------------0----------------------------------------|
 ||------------------------------------------------------------|
 ||------------------------------------------------------------|
 ||-3----------------------------------------------------------|
 ||--------3--3------------------------------3----3------------|
 ||--------------0--1-----1--0--1--3--1--0------------3--0-----|
 ||--0--0--------------0-------------------0---0------0--0-----|
 ||------------------------------------------------------------|
 ||------------------------------------------------------------|
 ||------------------------------------------------------------|
 ||-----------------------0-------------------------------------|
 ||--------0-----0--1--3----------0---0--0---0-----0--3--------|
 ||-----0-----0----------------0------0---0---0--2-----------0--|
 ||--2----------------------------------------------------4-----|
 ||-------------------------------------------------------------|
 ||-------------------------------------------------------------|

Verse IV: (play tabs above, slight variation from intro/or can just play the intro)
I'm 45 for a moment
The sea is high
And I'm heading into a crisis
Chasing the years of my life
( Tab from: http://www.guitartabs.cc/tabs/f/five_for_fighting/100_years_tab_ver_5.html )
Chorus: (easier to play chords)
[G]15... there's still[D] time [C(add9)]for you
[G]Time to buy and tim[D]e to l[C(add9)]ose yourself[Em7]
[Dsus]Within a morning [C(add9)]star
[C(add9)]  
[G]15... [D]I'm all right with[C(add9)] you
[D]15... [C9(add9)]there's never a w[Em7]ish [D]better tha[C(add9)]n this
When you only got 100 years to live...
Bridge: (play chords)
[C]Half time goes by[Dsus]
Suddenly you're wise[Em]
Another blink of an eye[Fmaj7]
67 is go[C(add9)]ne
The sun is getting high[Dsus]
We're moving on.[G]..
 
 ||---------3-3---------------------------------------|
 ||-----------------0----1----------1--0--1--3---------|
 ||------0---------------0-------0-----------------0---|
 ||----------------------------------------------------|
 ||---------------------------3--------3--------3------|
 ||---3--------3------3--------------------------------|
 ||---------3-3---------------------------------------|
 ||-----------------0----1----------1--0--1--3---------|
 ||------0---------------0-------0-----------------0---|
 ||---------------------------0--------0--------0------|
 ||---0--------0------0--------------------------------|
 ||----------------------------------------------------|

come in for verse V
 
 ||---------3-3---------------------------------------|
 ||-----------------0----1----------1--0--1--3---------|
 ||------0---------------0-------0-----------------0---|
 ||----------------------------------------------------|
 ||---------------------------3--------3--------3------|
 ||---3--------3------3--------------------------------|
 ||---------3--3---------------------------------------|
 ||-----------------0----1----------1--0--1--3--1--0---|
 ||------0---------------0-------0-----------------0---|
 ||---------------------------0--------0--------0------|
 ||---0--------0------0--------------------------------|
 ||----------------------------------------------------|
 ||------3-----3-----------------------------------0---|
 ||----------------3-----0----------0-----0--1--3------|
 ||---------0------0-----0-------0--------0--------0---|
 ||---------------------------2--------2--------2------|
 ||---2--------2------2--------------------------------|
 ||----------------------------------------------------|
 ||----------------------------------------------------|
 ||---------0--0---0-----0----------0--3-----3---------|
 ||------0-----0---0-----0-------2-----0-----------0---|
 ||---------------------------0--------------4---------|
 ||---0--------0------0-------------------5-----5------|
 ||----------------------------------------------------|

Verse V: (play tabs above)
I'm 99 for a moment
Dying for just another moment
And I'm just dreaming
Counting the ways to where you are
Additional part?: (play chords)
[G]15... there'[D]s still time for you[C(add9)]
22... [D]I feel her to[G]o
33... [D]you're on your wa[C(add9)]y
Every Da[D]y's a new Day
[G]Woohooohoooohooh[D]oohooooo
[Em7]Woohooohoooohooh[C(add9)]oohooooo
[G]Woohooohoooohooh[D]oohooooo
[Em7]Woohooohoooohooh[C(add9)]oohooooo
[G]15... ther[D]e's still time for y[Em7]ou
Time to bu[C(add9)]y and time to choose
[G]Hey 15... [D]there's never a w[Em7]ish [D]better than [C(add9)]this
When you only got 100 years to live
Outro:
 
 ||---------3-3---------------------------------------|
 ||-----------------0----1----------1--0--1--3---------|
 ||------0---------------0-------0-----------------0---|
 ||----------------------------------------------------|
 ||---------------------------3--------3--------3------|
 ||---3--------3------3--------------------------------|
 ||---------3-3---------------------------------------|
 ||-----------------0----1----------1--0--1--3---------|
 ||------0---------------0-------0---------------------|
 ||---------------------------0------------------------|
 ||---0--------0------0--------------------------------|
 ||----------------------------------------------------|


Important: The song above is NOT stored on the Chordie server. The original song is hosted at www.guitartabs.cc. Chordie works as a search engine and provides on-the-fly formatting. Chordie does not index songs against artists'/composers' will. To remove this song please click here.

Text color:
Chord color:
Chord grids: 
Font size:    
Page size: 

Am7 C C(add9) D D7sus Dsus Em Em7 Fmaj7 G G/B G5/C
Rate #1 of 4 versions

Jango Player

Login - add to songbook

SHARE PAGE  




You need to log in to post comments