Guitar Tabs, Chords and Lyrics
Server problems seems to be fixed. Chordie has been experiencing problems with songs disappearing. These issues now seems to be fixed, but still verifying the fix. If you find anything strange, please email admin@chordie.com.


Vein of Stars  The Flaming Lips

Song: Vein of Stars
Album: At War with the Mystics
Transcribed by Daniel Paul
Tuning: Open F6 (F, A, D, F, C, C)
(Tabbed for acoustic guitar)
based on F Major scale
INTRO:
 
 C|--2-----2------2------2------5------------5----------|
 C|-(0)----------(0)-----------(0)-----0----(0)----0----|
 F|-----5-----5-------5-----5-------4-----------4-------|
 D|---------------------------------------3-----------3-|
 A|-----------------------------------------------------|
 F|--5------------5-------------0------------0----------|

VERSE:
[Bb6]// /\/\ /\ /\/\/\ [F6]// /\/\ /\ /\/\/\
 
 C|--5------------------0----------------|
 C|--5------------------0----------------|
 F|--5------------------0----------------|
 D|--5------------------0----------------|
 A|--5------------------0----------------|
 F|--5------------------0----------------|

BRIDGE I: keep strumming
[Gm]// /\/\ /\ /\/\/\ [Dm]// /\/\ /\ /\/\/\
 
 C|-----------------(10)-17-17--12-12-----------|-h14--|
 C|------------5-5---10---------12-12-----------|------|
 F|--5---9-9---5-------------------0------------|------|
 D|--5---5----(5)------------------0------------|------|
 A|-(5)-(5)------------------------0------------|------|
 F|--5-5-----5-----5---------------0------------|------|

VERSE:
[Bb6]// /\/\ /\ /\/\/\ [F6]// /\/\ /\ /\/\/\
 
 C|--5------------------5/9---(10-9)--\5-|
 C|--5------------------0----------------|
 F|--5------------------0----------------|
 D|--5------------------0----------------|
 A|--5------------------0----------------|
 F|--5------------------0----------------|

INTERLUDE:
[A]/ / \ \ \ \ \\ / [Dm] // /\/\ /\ /\/\/\
 
 C|--1-1--2-2--4-4--5--7--0---------|
 C|--1-1--2-2--4-4--5--7--9---------|
 F|------------2-2--0--0--0---------|
 D|--2-2--2-2--2-2--0--0--7---------|
 A|--0----0----0----------8---------|
 F|-----------------------9---------|

[A]/ / / / / /\ / [Dm]// /\/\ /\ /\/\/\
 
 F|---------------------------0---|
 C|---------------------------0---|
 F|-(0)---(0)-------(0)-(0)---0---|
 D|--2----(2)-----2--3---5----7---|
 A|--4--4--5--5---4--0---0----8---|
 F|--4--4--4--4--(4)----------9---|

[A]/ / / / / / / \ [Dm] / \ / [A]/ \ /
 
 C|--1-1--2-2--4-4--5--7--9-10--9---7--9---7------|
 C|--1-1--2-2--4-4--5--7--9-10--9---7--9---7------|
 F|------------2-2--0--0--0-(0)(0)--7-(7)-(7)-----|
 D|--2-2--2-2--2-2--0--0--0-(0)(0)--7-(7)-(7)-----|
 A|--0----0----0----------8---------7-------------|
 F|-----------------------9--------(0)------------|

( Tab from: http://www.guitartabs.cc/tabs/f/flaming_lips/vein_of_stars_acoustic_tab.html )
SOLO:
Bb Dm F Bb piano F6
// /\ / // /\/\ // /\/\ /\ /\/\/\ // /\/\ /\/\/\/\
 
 C|-2---------------0-x--0----------x--0--------------------2-----------|
 C|-0----10-9-7-5-5-0-x--0---7/9--9-x--5-10--9--7--5-5------0--7-9p7-0--|
 F|-5---------------9-x--4----------x--5---------------9-7--4-----------|
 D|-0---------------7-x--3----------x--0--------------------0------(2x)-|
 A|-X---------------8-x--0----------x--x--------------------0-----------|
 F|-5---------------9-x--0----------x--5--------------------0-----------|

UTERO:
[Gm]/ / / / / / / / / / / [Dm/F] // /\/\ /\ /\/\/\
 
 C|-------------------------------2---|
 C|-------------------------------0---|
 F|--------------------5-5-7/9----0---|
 D|-(5)---------5-5---(5)---------0---|
 A|--5----5-5--(5)----(5)---------0---|
 F|--5-5-(5)--5(5)--5-------------0---|

[Gm]// /\/\ /\ /\/\/\ [Dm]// /\/\ /\ /\/\/\
 
 C|--7-------------------2---|
 C|--7-------------------2---|
 F|--5-------------------0---|
 D|--5-------------------0---|
 A|--5-------------------0---|
 F|--5-------------------0---|

CHRONOLOGY:
INTRO:
VERSE I: F6 Bb6
Who [Bb6]knows, maybe there [F6]isn't, a [Bb6]vein of stars calling
out my [F6]name. No [Bb6]glow from a[F6]bove our heads, [Bb6]nothing there
to send you down on your [F6]knees.
[Gm]Mmmmmmmmmm...[Dm] [Gm] [Dm]
VERSE II:
Twenty-[Bb6]five, twenty-six, twenty-[F6]seven, [Bb6]off in the future
maybe there ain't no h[F6]eaven. It's just [Bb6]you and me and maybe
it's just as [F6]well. And if there [Bb6]ain't no heaven, maybe
there ain't no [F6]hell.
INTERLUDE:
[A] [Dm]  
[A] [Dm]  
[A] [Dm]  
[A] [Dm] [A]  
SOLO: Bb F Bb6 F6
VERSE III:
Who [Bb6]knows, maybe there [F6]isn't, a [Bb6]vein of stars calling
out my [F6]name. Who k[Bb6]nows, maybe there [F6]isn't a [Bb6]vein of stars
calling out my [F6]name
UTERO:
Who [Gm]knows[Dm]? Who [Gm]knows[Dm]? Who [Gm]knows[Dm]? Who [Gm]knows[Dm]?
Calling out my [Gm]name[Dm], who [Gm]knows[Dm]? Who [Gm]knows[Dm]? [Gm]Calling out my [Dm]name
END: Dm/F6

Important: The song above is NOT stored on the Chordie server. The original song is hosted at www.guitartabs.cc. Chordie works as a search engine and provides on-the-fly formatting. Chordie does not index songs against artists'/composers' will. To remove this song please click here.

Text color:
Chord color:
Chord grids: 
Font size:    
Page size: 

A Bb6 Dm Dm/F F6 Gm
Rate #1 of 3 versions

Jango Player

Login - add to songbook

SHARE PAGE  



You need to log in to post comments