Guitar Tabs, Chords and Lyrics
Server problems seems to be fixed. Chordie has been experiencing problems with songs disappearing. These issues now seems to be fixed, but still verifying the fix. If you find anything strange, please email admin@chordie.com.


Devil's Dance Floor  Flogging Molly

 
 ----------------------------------------------------------------------------

"Devil's Dance Floor" - Flogging Molly
 
 ----------------------------------------------------------------------------

Tabbed by: Ted_Zebbetin
Email: Dabarnes@sewanee.edu
Tuning: Standard
The tabs that are up already are wrong, so I'm putting the real way to play it up.
This is the intro on tin whistle
 
 e|-12--15/17/16/17-15-12-14-12--------------------|
 B|-----------------------------10-12-10-8---------|
 G|----------------------------------------9-------|
 D|------------------------------------------------|
 A|------------------------------------------------|
 E|------------------------------------------------|

Am F Em (x3) Am F Em Am (Same as chorus)
The verses have no guitar, the tin whistle plays the smae riff from the intro.
Prechorus:
We're [Am]all just dancers on the D[Em]evil's Dance Floor
Chorus:
[Am]Swing a little more, little [F]more o'er the [Em]merry oh
[Am]Swing a little more, little [F]more next to [Em]me
[Am]Swing a little more, little [F]more o'er the [Em]merry oh
[Am]Swing a little more on the [F]Devil's [Em]Dance [Am]Floor
Interlude:
Bm D F#m (x3) Bm D F#m Bm
In the interlude the tin whistle plays this. If you wanna play its part in the chorus,
the same thing lowered a step (play it two frets lower).
Part 1 (Lines 1 and 3 of chorus)
 
 e|-14/7-7-9-7-7-9-10-12-10-9-7-5-----|
 B|-----------------------------------|
 G|-----------------------------------|
 D|-----------------------------------|
 A|-----------------------------------|
 E|-----------------------------------|

Part 2 (Line 2 of the chorus)
 
 e|-14/7-7-9-7-7-9-10-12-10-9-7-5-----|
 B|-----------------------------------|
 G|-----------------------------------|
 D|-----------------------------------|
 A|-----------------------------------|
 E|-----------------------------------|

Part 3 (Line 4 of the chorus)
 
 e|-14/7-7-9-7-7-9-10-7-9-5-7---------|
 B|-----------------------------------|
 G|-----------------------------------|
 D|-----------------------------------|
 A|-----------------------------------|
 E|-----------------------------------|


Important: The song above is NOT stored on the Chordie server. The original song is hosted at www.guitartabs.cc. Chordie works as a search engine and provides on-the-fly formatting. Chordie does not index songs against artists'/composers' will. To remove this song please click here.

Text color:
Chord color:
Chord grids: 
Font size:    
Page size: 

Am Em F
Rate #1 of 6 versions

Login - add to songbook

SHARE PAGE  




You need to log in to post comments