Guitar Tabs, Chords and Lyrics
Server problems seems to be fixed. Chordie has been experiencing problems with songs disappearing. These issues now seems to be fixed, but still verifying the fix. If you find anything strange, please email admin@chordie.com.


Iron Tears   Flotsam and Jetsam

 
 |-------------------------------------------------------------------|
 |-------------------------------------------------------------------|
 |-------------------------------------------------------------------|
 |-5\4/5-------------------------------------------------------------|
 |-3\2/3-4-------------------------(4)-------------------------------|
 |-------2-------------------------(2)-------------------------------|
 |-------------------------------------------------------------------|
 |-------------------------------------------------------------------|
 |-------------------------------------------------------------------|
 |-5\4---------------------------------------------------------------|
 |-3\2-5-2-------------------------(2)-------------------------------|
 |-----3-0-------------------------(0)-------------------------------|
 |-------------------------------------------------------------------|
 |-------------------------------------------------------------------|
 |-------------------------------------------------------------------|
 |-5\4/5-------------------------------------------------------------|
 |-3\2/3-4-------------------------(4)-------------------------------|
 |-------2-------------------------(2)-------------------------------|
 |-------------------------------------------------------------------|
 |-------------------------------------------------------------------|
 |-------------------------------------------------------------------|
 |-5\4/5-------------------------------------------------------------|
 |-3\2/3-5-2-----------------------(2)-------------------------3p2---|
 |-------3-0-----------------------(0)-----------------------------3-|

 


 


 Main Riff


 


 PM PM PM PM PM PM PM


 

 
 |---------------------------------------|
 |---------------------------------------|
 |---------------------------------------|
 |-4---4---4---4---4---4---4---4---------|
 |-4---4---4---4---4---4---4---4-3p2-3---|
 |-2-022-022-022-022-022-022-032-------2-|

 


 


 PM PM PM PM PM PM PM PM


 

 
 |-------------------------------------|
 |-------------------------------------|
 |-------------------------------------|
 |---4---4---4---4---4---4---4---------|
 |---4---4---4---4---4---4---4-3p22----|
 |-022-022-022-022-022-022-022------3--|

 


 


 PM PM PM PM PM PM PM


 

 
 |-------------------------------------|
 |-------------------------------------|
 |-------------------------------------|
 |---4---4---4---4---4---4---4---------|
 |---4---4---4---4---4---4---4-3p2-3---|
 |-022-022-022-022-022-022-022-------2-|

 


 


 


 PM PM PM


 

 
 |--------------------------------|
 |--------------------------------|
 |-------------6/7-4/6-2-4--------|
 |---4---4---4-4/5-2/4-0-2--------|
 |---4---4---4-------------3p2----|
 |-022-022-022-----------------3--|

 


 


 Verse


 


 PM PM PM PM PM PM PM


 

 
 |-------------------------------------|
 |-------------------------------------|
 |-------------------------------------|
 |---4---4---4---4---4---4---4---------|
 |---4---4---4---4---4---4---4-3p2-3---|
 |-022-022-022-022-022-022-022-------2-|

 


 


 PM PM PM PM PM PM PM PM


 

 
 |--------------------------------------|
 |--------------------------------------|
 |--------------------------------------|
 |---4---4---4---4---4---4---4----------|
 |---4---4---4---4---4---4---4-3p22-----|
 |-022-022-022-022-022-022-022------3p2-|

 


 


 PM PM PM PM PM PM


 

 
 |-----------------------------------|
 |-----------------------------------|
 |-----------------------------------|
 |---4---4---4---4---4---4-------7---|
 |---4---4---4---4---4---4-3p2-3-5---|
 |-022-022-022-022-022-022-----------|

 


 


 Bridge


 


 Guitar 1


 PM PM [-PM-] PM PM PM


 

 
 [-----------------------------------|
 [-----------------------------------|
 [-----------------0-----------------|
 [-9---9---9-------0--9---9---9----7-|
 [-7-777-777-7p5------7-777-777-77-5-|
 [---------------7-3-----------------| 

 


 [Guitar 2


 

 
 [-----------------------------------|
 [-----------------------------------|
 [---9---9---9----/12\--9---99--9----|
 [-----9---9---9--/12\----9---9----0-|
 [-----------------------------------|
 [-----------------------------------|

 


 


 Guitar 1


 PM PM [-PM-] PM PM PM


 

 
 [-----------------------------------|
 [-----------------------------------|
 [-----------------0-------0---------|
 [-9---9---9-------0-------0------7/-|
 [-7-777-777-7p5------77p5---77p5-5/-|
 [---------------7-3-----------------| 

 


 [ Guitar 2


 

 
 [-----------------------------------|
 [-----------------------------------|
 [---9---9---9----/12--12--12-9-9----|
 [-----9---9---9--/12/12---12--------|
 [-----------------------------------|
 [-----------------------------------|

 


 


 Guitar 1


 PM PM [-PM-] PM PM PM


 

 
 [-----------------------------------|
 [-----------------------------------|
 [-----------------0-----------------|
 [-9---9---9-------0--9---9---9----7-|
 [-7-777-777-7p5------7-777-777-77-5-|
 [---------------7-3-----------------| 

 


 [Guitar 2


 

 
 [-----------------------------------|
 [-----------------------------------|
 [---9---9---9----/12\--9---99--9----|
 [-----9---9---9--/12\----9---9----0-|
 [-----------------------------------|
 [-----------------------------------|

 


 


 Guitar 1


 PM PM [-PM-]


 

 
 [---------------------------------------|
 [---------------------------------------|
 [-----------------0---------------------|
 [-9---9---9-------0--9---2--------------|
 [-7-777-777-7p5------7-x-0--3p0-3p0-----|
 [---------------7-3-----------------3p0-| 

 


 [Guitar 2


 

 
 [---------------------------------------|
 [---------------------------------------|
 [---9---9---9----/12---/14-\------------|
 [-----9---9---9--/12\--/14-\------------|
 [---------------------------------------|
 [---------------------------------------|

 


 


 PM PM


 

 
 |----------------------|
 |----------------------|
 |----------------------|
 |---4---4--------------|
 |---4---4-3p2-3p2------|
 |-022-022---------3-2--|

 


 


 PM PM PM


 

 
 |-------------------|
 |-------------------|
 |-------------------|
 |---4---4-----------|
 |---4---4-3p22------|
 |-022-022------3-2--|

 


 


 PM PM


 

 
 |----------------------|
 |----------------------|
 |----------------------|
 |---4---4--------------|
 |---4---4-3p2-3p2------|
 |-022-022---------3-2--|

 


 


 PM PM PM


 

 
 |-------------------|
 |-------------------|
 |-------------------|
 |---4---4-----------|
 |---4---4-3p22------|
 |-022-022------3-2--|

 


 


 Lead fills


 PHPH~~ PH~~~ PHPH~~~~


 

 
 |------------------------------|
 |------------------------------|
 |-------------------------x\---|
 |-4b4b-----4b------4b4b---x\---|
 |------------------------------|
 |------------------------------|

 


 


 Chorus


 ~[PM] [PM] [PM] PM


 

 
 |--------------------------------------------------------|
 |--------------------------------------------------------|
 |--------------------------------------------------------|
 |-9--(9)----------7--(7)----------------9----9----9---7--|
 |-7--(7)--9--(9)--5--(5)--7--(7)--------7----7----7---5--|
 |---------7--(7)----------5--(5)--\3-00---00---00---0----|

 


 


 [PM] [PM] [PM] PM


 

 
 |---------------------|
 |---------------------|
 |---------------------|
 |----9----9----9---7--|
 |----7----7----7---5--|
 |-00---00---00---0----|

 


 


 ~[PM] [PM] [PM] PM


 

 
 |--------------------------------------------------------|
 |--------------------------------------------------------|
 |--------------------------------------------------------|
 |-9--(9)----------7--(7)----------------9----9----9---7--|
 |-7--(7)--9--(9)--5--(5)--7--(7)--------7----7----7---5--|
 |---------7--(7)----------5--(5)--\3-00---00---00---0----|

 


 


 [PM] [PM] [PM] PM


 

 
 |----------------------|
 |----------------------|
 |----------------------|
 |----9----9----9---12--|
 |----7----7----7---10--|
 |-00---00---00---0-----|

 


 


 [PM] [PM] [PM] PM


 

 
 |---------------------------------------|
 |---------------------------------------|
 |---------------------6/7-4/6-2-4-------|
 |----9----9----9---7--4/5-2/4-0-2-------|
 |----7----7----7---5--------------3p2---|
 |-00---00---00---0--------------------3-|

 


 


 Rpt Verse, Bridge and Chorus


 


 

 
 [-------------PM--------------]
 |-------------------------------|
 |-------------------------------|
 |-------------------------------|
 |-------------------------------|
 |-7-7-7-7-7-7-7-7-7-7-7-7-7-7-7-|
 |-0-0-0-0-0-0-0-0-0-0-0-0-0-0-0-|

 


 


 Mid 8


 


 

 
 |--------------------------------------------------------------|
 |--------------------------------------------------------------|
 |-0---(0)-------------0---(0)-------------0---(0)--------------|
 |-0---(0)-------------0---(0)---2---(2)---0---(0)--------------|
 |-----------4---(2)-------------0---(0)-------------4---(4)----|
 |-3---(3)---2---(2)---3---(3)-------------3---(3)---2---(2)----|

 


 


 [PM] [PM] [PM] PM


 

 
 |---------------------|
 |---------------------|
 |---------------------|
 |----9----9----9---7--|
 |----7----7----7---5--|
 |-00---00---00---0----|
 |--------------------------------------------------------------|
 |--------------------------------------------------------------|
 |-0---(0)-------------0---(0)-------------0---(0)--------------|
 |-0---(0)-------------0---(0)---2---(2)---0---(0)---2---(2)----|
 |-----------4---(2)-------------0---(0)-------------0---(0)----|
 |-3---(3)---2---(2)---3---(3)-------------3---(3)--------------|

 


 


 [PM] [PM] [PM] PM


 

 
 |---------------------|
 |---------------------|
 |---------------------|
 |----9----9----9---7--|
 |----7----7----7---5--|
 |-00---00---00---0----|

 


 


 [PM] [PM] [PM] PM


 

 
 |----------------------|
 |----------------------|
 |----------------------|
 |----9----9----9---12--|
 |----7----7----7---10--|
 |-00---00---00---0-----|

 


 


 [PM] [PM] [PM] PM


 

 
 |-----------------------------------------|
 |-----------------------------------------|
 |---------------------6/7-4/6-2-4---------|
 |----9----9----9---7--4/5-2/4-0-2-------4-|
 |----7----7----7---5--------------3p2-3-2-|
 |-00---00---00---0------------------------|

 


 


 Backing for solo


 


 [PM] [PM] [PM] [PM] 


 

 
 |---------------------------------------|
 |---------------------------------------|
 |---------------------------------------|
 |----4----4-----7--2----2----2-------4--|
 |-22-2-22-2-3p2-5--0-00-0-00-0-3p2-3p2--|
 |---------------------------------------|
 [PM] [PM] [-----PM-----]
 |---------------------------------------|
 |---------------------------------------|
 |---------------------------------------|
 |----4----4-----7----------------5-\4---|
 |-22-2-22-2-3p2-5--5-5-5-5-5-5-5-3-\2---|
 |---------------------------------------|

 


 


 [PM] [PM] [PM] [PM] 


 

 
 |---------------------------------------|
 |---------------------------------------|
 |---------------------------------------|
 |----4----4-----7--2----2----2-------4--|
 |-22-2-22-2-3p2-5--0-00-0-00-0-3p2-3p2--|
 |---------------------------------------|
 [PM] [PM] [-----PM-----]
 |---------------------------------------|
 |---------------------------------------|
 |---------------------------------------|
 |----4----4-----7----------------5------|
 |-22-2-22-2-3p2-5--5-5-5-5-5-5-5-3--5---|
 |-----------------------------------3---|

 


 


 [PM] [PM] [PM] [PM] [PM] [PM] 


 

 
 |------------------------------------------|
 |------------------------------------------|
 |------------------------------------------|
 |------------------------------------------|
 |----4----4----5/7--2----2----2-------5\4--|
 |-02-2-02-2-3p23/5--0-00-0-00-0-3p2-3-3\2--|
 [PM] [PM] [PM] [-----PM-----]
 |---------------------------------------|
 |---------------------------------------|
 |---------------------------------------|
 |---------------------------------------|
 |----4----4-----7----------------5-\4---|
 |-02-2-02-2-3p2-5--5-5-5-5-5-5-5-3-\2---|

 


 


 [PM] [PM] [PM] [PM] [PM] [PM] 


 

 
 |------------------------------------------|
 |------------------------------------------|
 |------------------------------------------|
 |------------------------------------------|
 |----4----4----5/7--2----2----2-------5\4--|
 |-02-2-02-2-3p23/5--0-00-0-00-0-3p2-3-3\2--|
 [PM] [PM] [PM] [-----PM-----]
 |---------------------------------------|
 |---------------------------------------|
 |---------------------------------------|
 |--------------------------------7-/9---|
 |----4----4-----7----------------5-/7---|
 |-02-2-02-2-3p2-5--5-5-5-5-5-5-5--------|

 


 


 [PM] [PM] [PM] PM


 

 
 |---------------------|
 |---------------------|
 |---------------------|
 |----9----9----9---7--|
 |----7----7----7---5--|
 |-00---00---00---0----|

 


 


 [PM] [PM] [PM] PM


 

 
 |----------------------|
 |----------------------|
 |----------------------|
 |----9----9----9---12--|
 |----7----7----7---10--|
 |-00---00---00---0-----|

 


 


 [PM] [PM] [PM] PM


 

 
 |-----------------------------------------|
 |-----------------------------------------|
 |---------------------6/7-4/6-2-4---------|
 |----9----9----9---7--4/5-2/4-0-2---------|
 |----7----7----7---5--------------3p2-3-4-|
 |-00---00---00---0----------------------2-|

 


 


 Rpt Verse, Bridge and Chorus


 


 [PM] [PM] [PM] PM


 

 
 |---------------------|
 |---------------------|
 |---------------------|
 |----9----9----9---7--|
 |----7----7----7---5--|
 |-00---00---00---0----|

 


 


 [PM] [PM] [PM] PM


 

 
 |----------------------|
 |----------------------|
 |----------------------|
 |----9----9----9---12--|
 |----7----7----7---10--|
 |-00---00---00---0-----|

 


 


 [PM] [PM] [PM] PM


 

 
 |-----------------------------------------------|
 |-----------------------------------------------|
 |---------------------6/7-4/6-2-4---------------|
 |----9----9----9---7--4/5-2/4-0-2---------------|
 |----7----7----7---5--------------3p2---2--(2)--|
 |-00---00---00---0--------------------3-0--(0)--|


Important: The song above is NOT stored on the Chordie server. The original song is hosted at www.guitartabs.cc. Chordie works as a search engine and provides on-the-fly formatting. Chordie does not index songs against artists'/composers' will. To remove this song please click here.

This song is displayed as text-only. Transposing and tuning is only available for chordpro-songs.
Rate #0 of 2 versions

Jango Player

Login - add to songbook

SHARE PAGE  




You need to log in to post comments