Guitar Tabs, Chords and Lyrics
Server problems seems to be fixed. Chordie has been experiencing problems with songs disappearing. These issues now seems to be fixed, but still verifying the fix. If you find anything strange, please email admin@chordie.com.


Blue Monday  Flunk

Flunk - Blue Monday
Intro/Chords
(CAPO 3)
All chords/tabs are relative to capo.
(Chords)
Dsus2 xx0230
A 002220
Bm x24432
Cmaj7 x32010
(Intro)
 
 e|------------------------------------------------|
 B|--------3----------------------------------3--0-|
 G|-------2---2-2--------2-------------4------4----|
 D|---0--------0--------2---2-2-------4---4--------|
 A|-----------------0--------0-----2-------2-------|
 E|------------------------------------------------|

 
 e|--------0-------------------------------------------------|
 B|-------0---0-0-------------------------------3------2-----|
 G|---------------------2--------------4---------4------4----|
 D|---2--------2-------2----2-2-------4----4------4------4---|
 A|-----------------0--------0-----2--------2----------------|
 E|----------------------------------------------------------|

Intro x4 (Or repeat through-out the entire song)
[Dsus2]How[A]
does it fe[Bm]el
To [Cmaj7]treat me [A]like you [Bm]do
When you've [Dsus2]laid your [A]hands upon[Bm] me
And [Cmaj7]told me [A]who you [Bm]are
I [Dsus2]thought I [A]was mis[Bm]taken
I [Cmaj7]thought I [A]heard your [Bm]words
Tell me [Dsus2]how[A]
do I fe[Bm]el
Tell me [Cmaj7]now how [A]do I [Bm]feel
(repeat those chords through-out the entire song)
How does it feel
To treat me like you do
When you've laid your hands upon me
And told me who you are
I thought I was mistaken
And I thought I heard your words
Tell me how do I feel
Tell me now how do I feel
Those who came before me
Lived through their vocations
From the past until completion
They'll turn away no more
And I still find it so hard
To say what I need to say
But I'm quite sure that you'll tell me
Just how I should feel today
I see a ship in the harbor
I can't and shall I obey
But if it wasn't for your misfortune
I'd be a heavenly person today
And I thought I was mistaken
And I thought I heard you speak
Tell me how do I feel
Tell me now how should I feel
Treat me like you do

Important: The song above is NOT stored on the Chordie server. The original song is hosted at www.guitartabs.cc. Chordie works as a search engine and provides on-the-fly formatting. Chordie does not index songs against artists'/composers' will. To remove this song please click here.

Text color:
Chord color:
Chord grids: 
Font size:    
Page size: 

A Bm Cmaj7 Dsus2
Rate #1 of 1 versions

Jango Player

Login - add to songbook

SHARE PAGE  




You need to log in to post comments