Guitar Tabs, Chords and Lyrics
Server problems seems to be fixed. Chordie has been experiencing problems with songs disappearing. These issues now seems to be fixed, but still verifying the fix. If you find anything strange, please email admin@chordie.com.


Infantry   For Today

 
 ----------------------------------------------------------------------------

 


 INFANTRY - FOR TODAY


 

 
 ----------------------------------------------------------------------------

 


 Tabbed by: Timmy2shoes


 Email: xtommyguntim@yahoo.com


 Please Rate happily


 Tuning:Drop C (CGCFAD)


 


 

 
 D|------------------------------------------------------\-- /
 A|--------------------------------------------------------- / \
 F|--------------------------------------------------------- / x3
 C|-----3-2---3-2-0-2---7-5----------3-2---3-2-0-2---7-5- -- /
 G|-5-4-----------------------5-4--------------------------- /
 C|--------------------------------------------------------- /
 D|----------------------------9h12p9-------------------------------|
 A|-------------10-11-10--------------10----------------------------|
 F|----------10----------10--------------9-10p9--------------9-10---|
 C|-------12----------------12------------------11/12-12--12--------|
 G|-13-13-----------------------------------------------------------|
 C|-----------------------------------------------------------------|
 D|-------------------------------------------------13h17p13--------------|
 A|--------------------14--15--17--15--14-15-17--------------15-----------|
 F|-10-10--12--14--15----------------------------14-------------14-15p14--|
 C|-----------------------------------------------------------------------|
 G|-----------------------------------------------------------------------|
 C|-----------------------------------------------------------------------|
 D|---------------------------------------|
 A|---------------------------------------|
 F|---------------------------------------|
 C|--15/17--14--14-14-14-14-15-14-12-14---|
 G|---------------------------------------|
 C|---------------------------------------|
 D|-------------------------------------|
 A|-------------------------------------|
 F|--------------------2h3p2------------|
 C|-------2h3p2--------------3--2~------|
 G|-0-1-4-------4-5--0--------------4~--|
 C|-0----------------0------------------|

 


 . .


 


 

 
 D|-------------------------------------\ /
 A|-------------------------------------- / \
 F|--------------------2h3p2-----6--2---- / \
 C|-------2h3p2--------------3----------- / \
 G|-0-1-4-------4-5--0------------------- / \
 C|-0----------------0------------------- / \

 


 . . x4


 [/]  

 
 D|--------------------------------------- /
 A|--------------------------------------- /
 F|--------------------2h3p2-----6-/6----- /
 C|-------2h3p2--------------3------------ /
 G|-0-1-4-------4-5--0-------------------- /
 C|-0----------------0-------------------- /

 


 . .


 


 

 
 D|----------------------------\-- /
 A|------------------------------- / \
 F|------------------------------- / x6
 C|---------------------------- -- /
 G|-0-00--000-0--0000-00---------- /
 C|-0-00--000-0--0000-00---------- /

 


 . .. ... . .... ..


 


 

 
 D|---------------------------------------------------5h6p5-|
 A|------------------5h6p5------------------5h6p5-----------|
 F|-----2h3p2--------------6------6h7p6-----------6---------|
 C|---3-------3----7------------7-------7-----------7-------|
 G|-1------------4------------5-----------8-----------------|
 C|---------------------------------------------------------|
 D|---------------------------------------------------5h6p5-\-- /
 A|------------------5h6p5------------------5h6p5-------------- / \
 F|-----2h3p2--------------6------6h7p6-----------6------------ / x7
 C|---3-------3----7------------7-------7-----------7------- -- /
 G|-1------------4------------5-----------8-------------------- /
 C|--0---------0--0---------0--0------------------------------- /

 


 . . . . .


 


 

 
 D|--------------------------------|
 A|--------------------------------|
 F|--------------------------------|
 C|-----------7-5-8~--12~-11~------|
 G|-5~-7~-10~----------------------|
 C|--------------------------------|
 D|-----------------------------------------------------------\ /
 A|--------8--------------8-------------8------11-10-8-10-8---- / \
 F|---9-10---10-9----9-10---10-9-7-9-10---10-9----------------- / \
 C|-8-------------11------------------------------------------- / \
 G|------------------------------------------------------------ / \
 C|------------------------------------------------------------ / \

 


 \


 x2


 

 
 D|----------------------------------------------------9\------- /
 A|--------8--------------8-------------8------11-10-8---------- /
 F|---9-10---10-9----9-10---10-9-7-9-10---10-9------------------ /
 C|-8-------------11-------------------------------------------- /
 G|------------------------------------------------------------- /
 C|------------------------------------------------------------- /
 D|-------------------13h17p13------13h17p13-------\-- /
 A|-----------------15--------15--15--------15-------- / \
 F|---------------14------------14------------14------ / x4
 C|-----11'-12'------------------------------------ -- /
 G|-13'----------------------------------------------- /
 C|--------------------------------------------------- /
 D|---------------------------------------\--- /
 A|------------------------------------------- / \
 F|--------------------------------------- x10 /
 C|--------------------------------------- --- /
 G|-0-00000---0000-000-000-------------------- /
 C|-0-00000---0000-000-000-------------------- /

 


 . ..... .... ... ...


 


 

 
 D|-5-----6-----3-----5--6-----\-- /
 A|-6-----6-----5-----5--6-------- / \
 F|-7-----6-----6-----6--6-------- / x4
 C|-------7-----------7--7----- -- /
 G|------------------------------- /
 C|------------------------------- /

 


 (Just the chords, listen for times)


 


 

 
 D|-------------------------------------|
 A|-------------------------------------|
 F|--------------------2h3p2------------|
 C|-------2h3p2--------------3--2~------|
 G|-0-1-4-------4-5--0--------------4~--|
 C|-0----------------0------------------|

 


 . .


 


 

 
 D|-------------------------------------\ /
 A|-------------------------------------- / \
 F|--------------------2h3p2-----6--2---- / \
 C|-------2h3p2--------------3----------- / \
 G|-0-1-4-------4-5--0------------------- / \
 C|-0----------------0------------------- / \

 


 . . x4


 [/]  

 
 D|--------------------------------------- /
 A|--------------------------------------- /
 F|--------------------2h3p2-----6-/6----- /
 C|-------2h3p2--------------3------------ /
 G|-0-1-4-------4-5--0-------------------- /
 C|-0----------------0-------------------- /

 


 . .


 


 

 
 D|----------------------------|
 A|----------------------------|
 F|----------------------------|
 C|----------------------------|
 G|-0-00--000-0--0000-00-------|
 C|-0-00--000-0--0000-00-------|

 


 . .. ... . .... ..


 


 

 
 D|---------------------------------------|
 A|---------------------------------------|
 F|---------------------------------------|
 C|---------------------------------------|
 G|-0-00000---0000-000-000----------------|
 C|-0-00000---0000-000-000----------------|

 


 . ..... .... ... ...


 


 

 
 D|----------------------------|
 A|----------------------------|
 F|----------------------------|
 C|----------------------------|
 G|-0-00--000-0--0000-00-------|
 C|-0-00--000-0--0000-00-------|

 


 . .. ... . .... ..


 


 

 
 D|---------------------------------------|
 A|---------------------------------------|
 F|---------------------------------------|
 C|---------------------------------------|
 G|-0-00000---0000-000-000----------------|
 C|-0-00000---0000-000-000----------------|

 


 . ..... .... ... ...


 


 

 
 D|------------------------------------------------------\-- /
 A|--------------------------------------------------------- / \
 F|--------------------------------------------------------- / x2
 C|-----3-2---3-2-0-2---7-5----------3-2---3-2-0-2---7-5- -- /
 G|-5-4-----------------------5-4--------------------------- /
 C|--------------------------------------------------------- /
 D|------------------------------------------------------|
 A|------------------------------------------------------|
 F|------------------------------------------------------|
 C|-----3-2---3-2-0-2---7-5----------3-2-----------------|
 G|-5-4-----------------------5-4------------------------|
 C|------------------------------------------------------|


Important: The song above is NOT stored on the Chordie server. The original song is hosted at www.guitartabs.cc. Chordie works as a search engine and provides on-the-fly formatting. Chordie does not index songs against artists'/composers' will. To remove this song please click here.

This song is displayed as text-only. Transposing and tuning is only available for chordpro-songs.
Rate #1 of 2 versions

Jango Player

Login - add to songbook

SHARE PAGE  




You need to log in to post comments