Guitar Tabs, Chords and Lyrics
Server problems seems to be fixed. Chordie has been experiencing problems with songs disappearing. These issues now seems to be fixed, but still verifying the fix. If you find anything strange, please email admin@chordie.com.


She Knows  Four Star Mary

Author/Artist: Four Star Mary
Title: She Knows
Album: Thrown to the Wolves
Intro: C5 G5 A5 F5 (x1)
Guitar 1:
[C5] [G5] [A5] [F5] 
Guitar 2: (over guitar 1)
Fig 1:
 
 -----------------------------------------------|
 -----------------------------------------------|
 --5/7--7/9--12--12/14--12--9--9/10\9--7--7/9\5-|
 -----------------------------------------------|
 --3/5--5/7--10--10/12--10--7--7/8\7---5--5/7\3-|
 -----------------------------------------------|

[C5] [G5] [A5] [F5] 
 
 -----------------------------------------------------------|
 -----------------------------------------------------------|
 -5/7--7/9--12--12/14--12--10--9/10--12-10-9---9/10-12-10-9-|
 -----------------------------------------------------------|
 -3/5--5/7--10--10/12--10---8--7/8---10--8-7---7/8--10--8-7-|
 -----------------------------------------------------------| X 2

(Fig 2)
she flies from a blinding light
and spirals to my heart
i try to find my mind
but don't know where to start
Fig 2:
 
 ----10---8-----8-------10---8-----8-------10---8-----8-------12-10---10-----|
 -------8---8-8---8--------8---8-8---8--------8---8-8---8-----------8----8---|
 ----------------------------------------------------------------------------|
 -10-----------------10-----------------10-----------------10----------------|
 ----------------------------------------------------------------------------|
 ----------------------------------------------------------------------------| X 2

[Am]won't ever
[G#]can't ever
[C]find my san[F]ity
[Am]won't ever
[G#]can't ever
[C]until i hea[F]r her calling for me
[C5]she knows that
[G5]she knows that
[A5]she knows that [F5]side of me
[C5]i can't help it
[G5]can't help it
[A5]can't help that[F5] side of me
[F5]just a little more
[A5]just a little more
[G5]just until i know what i'm feeling
[F5]just a little more
[A5]just a little more
[C5]to find my sanity
(repeat figure 2)
i'm lost in a thousand nights
but Sunshine's at my feet
i'd walk through a thousand fires
and next to me she'd be
[Am]won't ever
[G#]can't ever
[C]find my san[F]ity
[Am]won't ever
[G#]can't ever
[C]until i hea[F]r her calling for me
[C5]she knows that
[G5]she knows that
[A5]she knows that [F5]side of me
[C5]i can't help it
[G5]can't help it
[A5]can't help that[F5] side of me
[F5]just a little more
[A5]just a little more
[G5]just until i know what i'm feeling
[F5]just a little more
[A5]just a little more
[C5]to find my sanity
Guitar 1:
[Dm7]she knows that s[Am]ide
[C]she's calling ba[G]ck for me
[Dm7]i've lost my mi[Am]nd
[F]til she's calling for me
[Dm7]she knows that s[Am]ide
[C]she's calling ba[G]ck for me
[Dm7]i've lost my min[Am]d
[F]til she's calling for me
[F]she's calling for me
[D]she's calling for me
Guitar 2: (over guitar 1)
Fig 3:
 
 ----------------------------------------------------------------|
 --6~~~--5/6\5~~~--5----------6~~~--5/6\5~~~---------------------|
 -------------------7-5-7---------------------7-5----------------|
 -------------------------------------------------7~~------------|
 ----------------------------------------------------------------|
 ----------------------------------------------------------------|

she knows that...

Important: The song above is NOT stored on the Chordie server. The original song is hosted at www.guitartabs.cc. Chordie works as a search engine and provides on-the-fly formatting. Chordie does not index songs against artists'/composers' will. To remove this song please click here.

Text color:
Chord color:
Chord grids: 
Font size:    
Page size: 

A5 Am C C5 D Dm7 F F5 G G# G5
Rate #2 of 3 versions

Jango Player

Login - add to songbook

SHARE PAGE  



You need to log in to post comments