Guitar Tabs, Chords and Lyrics
Major upgrade!! After one year development the new version of Chordie is now online! Please give feedback.


Auf Achse   Franz Ferdinand

 
 -------------------------------------------------------------------------------

 


 Auf Achse - Franz Ferdinand


 

 
 -------------------------------------------------------------------------------

 


 


 Tabbed By : Kaz77777


 Tuning: EADG


 


 Note: (+) gives the beat (one, two, three, four)


 Intro (0:00)


 [+] [+] [+] [+] [+] [+] [+] [+] [+] [+] [+] [+] [+] [+] [+] [+]  

 
 G||--------|--------|--------|--------||
 D|:--------|--------|--------|--------:|
 A|:0r------|3r------|5r------|8r------:|
 E||--------|--------|--------|--------||x2

 


 


 Verse (0:32)


 [+] [+] [+] [+]  

 
 G||--------------------------------| \
 D|:--7-9\7---7-9\7---7-9\7---7---7/| |
 A|:--------------------------------| |
 E||5-------5-------5-------5---5---| |

 


 \


 + + + + \


 

 
 G|--5-7\5---5-7\5---5-7\5---5---5/| \
 D|--------------------------------| \
 A|3-------3-------3-------3---3---| \
 E|--------------------------------| \

 


 \ x4


 [+] [+] [+] [+] [/]  

 
 G|--7-9\7---7-9\7---7-9\7---7---7/| /
 D|--------------------------------| /
 A|5-------5-------5-------5---5---| /
 E|--------------------------------| /

 


 [/] 


 [+] [+] [+] [+] [/]  

 
 G|--10-12\10---10-12\10---10---10---10---10|| |
 D|-----------------------------------------:| |
 A|8----------8----------8----8----8----8---:| |
 E|-----------------------------------------|| /

 


 


 Chorus (1:34)


 [+] [+] [+] [+]  

 
 G||-----------------------------------||
 D|:-----------------------------------:|
 A|:-------------5/10-10-10-10\8-8-8-8-:|
 E||5-5-5-5-5-5-5----------------------||x4

 


 


 Interlude (1:50)


 [+] [+] [+] [+] [+] [+] [+] [+] [+] [+] [+] [+]  

 
 G||----------------|----------------|----------------||
 D|:----------------|----------------|----------------:|
 A|:----------------|----------------|----------------:|
 E||5-5-5-5-5-5-5-57|8-8-8-8-8-8-8-8-|3-3-3-3-3-3-3-3-||x2

 


 


 Verse (2:13)


 [+] [+] [+] [+]  

 
 G||--------------------------------| \
 D|:--7-9\7---7-9\7---7-9\7---7---7/| |
 A|:--------------------------------| |
 E||5-------5-------5-------5---5---| |

 


 \


 + + + + \


 

 
 G|--5-7\5---5-7\5---5-7\5---5---5/| \
 D|--------------------------------| \
 A|3-------3-------3-------3---3---| \
 E|--------------------------------| \

 


 \ x2


 [+] [+] [+] [+] [/]  

 
 G|--7-9\7---7-9\7---7-9\7---7---7/| /
 D|--------------------------------| /
 A|5-------5-------5-------5---5---| /
 E|--------------------------------| /

 


 [/] 


 [+] [+] [+] [+] [/]  

 
 G|--10-12\10---10-12\10---10---10---10---10|| |
 D|-----------------------------------------:| |
 A|8----------8----------8----8----8----8---:| |
 E|-----------------------------------------|| /

 


 


 Chorus (2:43)


 [+] [+] [+] [+]  

 
 G||-----------------------------------||
 D|:-----------------------------------:|
 A|:-------------5/10-10-10-10\8-8-8-8-:|
 E||5-5-5-5-5-5-5----------------------||x4

 


 


 Bridge (2:59) (3:17)


 [+] [+] [+] [+] [+] [+] [+] [+] [+] [+] [+] [+]  

 
 G|----------------| G||----------------|| G|----------------|
 D|----------------| D|:----------------:| D|----------------|
 A|----------------| A|:5-5-5-5---------:| A|----------------|
 E|5-5-5-5-6-6-6-6-| E||--------6-6-6-6-||x4 E|1-1-1-1/5-5-5-5-|

 


 


 Verse (3:21)


 [+] [+] [+] [+]  

 
 G||--------------------------------| \
 D|:--7-9\7---7-9\7---7-9\7---7---7/| |
 A|:--------------------------------| |
 E||5-------5-------5-------5---5---| |

 


 \


 + + + + \


 

 
 G|--5-7\5---5-7\5---5-7\5---5---5/| \
 D|--------------------------------| \
 A|3-------3-------3-------3---3---| \
 E|--------------------------------| \

 


 \ x2


 [+] [+] [+] [+] [/]  

 
 G|--7-9\7---7-9\7---7-9\7---7---7/| /
 D|--------------------------------| /
 A|5-------5-------5-------5---5---| /
 E|--------------------------------| /

 


 [/] 


 [+] [+] [+] [+] [/]  

 
 G|--10-12\10---10-12\10---10---10---10---10|| |
 D|-----------------------------------------:| |
 A|8----------8----------8----8----8----8---:| |
 E|-----------------------------------------|| /

 


 


 Outro (3:52)


 [+] [+] [+] [+] [+] [+] [+] [+] [+] [+] [+] [+] [+] [+] [+] [+] [+] [+] [+] [+]  

 
 G|--------|--------|--------|--------|--------|
 D|--------|--------|--------|--------|--------|
 A|0r------|3r------|5r------|8r------|0r------|
 E|--------|--------|--------|--------|--------|


Important: The song above is NOT stored on the Chordie server. The original song is hosted at www.guitartabs.cc. Chordie works as a search engine and provides on-the-fly formatting. Chordie does not index songs against artists'/composers' will. To remove this song please click here.

This song is displayed as text-only. Transposing and tuning is only available for chordpro-songs.
Rate #1 of 6 versions

Jango Player

Login - add to songbook

SHARE PAGE  




You need to log in to post comments