Guitar Tabs, Chords and Lyrics
Major upgrade!! After one year development the new version of Chordie is now online! Please give feedback.


Dream Again  Franz Ferdinand

 
 -------------------------------------------------------------------------------

DREAM AGAIN - Franz Ferdinand
 
 -------------------------------------------------------------------------------

Tabbed By : Logicaliber
e-mail: thanna3992@gmai.com
Listen to the song for note timing. The upbeat just before the 1 of each measure is always
silenced, so there's always
about a quarter of a second of silence before each note. This isn't so much hard to play
as it is to memorize, every single
part is different. Please rate and comment.
Tuning: Standard
Intro:
"Don't be afraid if you hear voices..."
[F] [C] [G] [F] [C] [B]  
 
 G|----------------------------------------------------------------|
 D|----------------------------------------------------------------|
 A|--------3~------------------------------3~------2~--------------|
 E|1~--------------3~--------------1~------------------------------|

Verse 1:
"Sometimes the sound of a thousand whispering words..."
[Em] [D] [G] [B] [F] [C] [B]  
 
 G|----------------------------------------------------------------|
 D|----------------------------------------------------------------|
 A|7~------5~--------------2~--------------3~------2~--0~----------|
 E|----------------3~--------------1~----------------------3~--2~-/|

Verse 2:
"We'll see us joined together..."
[Em] [D] [G] [B] [F] [C] [B]  
 
 G|----------------------------------------------------------------|
 D|----------------------------------------------------------------|
 A|7~------5~--------------2~--0-2---------3~------2~--0~----------|
 E|----------------3~--------------1~----------------------3~--2~--|

Chorus 1 (play twice)
"I live to dream again."
[F] [C] [G] [F] [C] [G]  
 
 G|----------------------------------------------------------------|
 D|----------------------------------------------------------------|
 A|--------3~----------------2-3-5---------3~----------------0-2---|
 E|1~--------------3~------3-------1~--------------3~------3-----3-|

Turnaround:
"Without a hand rail to guide you..."
[F] [C] [B]  
 
 G|--------------------------------|
 D|--------------------------------|
 A|--------3~------2~--0~----------|
 E|1~----------------------3~--2~-/|

Verse 3:
"Sometimes the soundof a thousand whispering words..."
[Em] [D] [G] [B] [F] [C] [B]  
 
 G|----------------------------------------------------------------|
 D|----------------------------------------------------------------|
 A|7~------5~--------------2~--------------3~------2-------------2/|
 E|----------------3~--------------1~------------------------------|

Verse 4:
"They shift and slide together..."
[Em] [D] [G] [B] [F] [B]  
 
 G|----------------------------------------------------------------|
 D|----------------------------------------------------------------|
 A|7~------5~----------0---2~----------------------2~--0~----------|
 E|----------------3~----3---------1~----------------------3~--2~--|

Chorus 2:
"I live to dream again"
[F] [C] [G] [F] [C] [G]  
 
 G|----------------------------------------------------------------|
 D|----------------------------------------------------------------|
 A|--------3~----3*----------2*3*5*--------3~----3*--------3-2-0---|
 E|1~----1*--------3~------3*------1~--------------3~------------3-|

[F] [C] [G] [F] [C] [G]  
 
 G|----------------------------------------------------------------|
 D|----------------------------------------------------------------|
 A|--------3~----------------2*3*5*--------3~------2~--0~----------|
 E|1~----1*--------3~------3*------1~----1*----------------3~--2~-/|

Instrumental:
[Em] [D] [G] [B] [F] [C] [B]  
 
 G|----------------------------------------------------------------|
 D|----------------------------------------------------------------|
 A|7~----7*5~----5*--------2~--3*5*--------3~------2~--0~----------|
 E|----------------3~----3*--------1~----------------------3~--2~--|

Verse 5:
"Sometimes the sound of a thousand whispering words..."
[Em] [D] [G] [B] [F] [C] [B]  
 
 G|----------------------------------------------------------------|
 D|----------------------------------------------------------------|
 A|7~----7*5~-----\--------2~--------------3~----3*2*--0*----------|
 E|----------------3~--------------1~----1*----------------3*--2*--|

Verse 6
"Well i feel us dream together..."
[Em] [D] [G] [B] [F] [C] [B]  
 
 G|----------------------------------------------------------------|
 D|----------------------------------------------------------------|
 A|6h7~--7*5~----------0*2*2~--------------3~------2V--------------|
 E|----------------3~--------------1~----------------------------3^|

This bit is tricky. I'm not sure if this is how he plays it, but my way works. You have
to turn your volume off after the
2, then play a E-string 3, then turn it up again so the 3 fades in.)
Chorus 3:
"I live to dream again."
[F] [C] [G] [F] [C] [G]  
 
 G|----------------------------------------------------------------|
 D|----------------------------------------------------------------|
 A|--------3~3~---3~---------2*3*5*--------3~3~--3~--------3*2*0*--|
 E|1~1~--1~---------3~3~---3*------1~1~--1~--------3~3~----------3*|

[F] [C] [G] [F] [C] [G]  
 
 G|----------------------------------------------------------------|
 D|----------------------------------------------------------------|
 A|--------3~3~---3~---------0*2*3*--------3~3~--3~--------3*2*0*--|
 E|1~1~--1~---------3~--3~-3*------1~1~--1~--------3~--3~--------3*|

[F] [C] [G] [F] [C] [G]  
 
 G|----------------------------------------------------------------|
 D|----------------------------------------------------------------|
 A|--------3~----------------2*3*5*------------3*3*----------2*3*5*|
 E|1~---------------3~-----3*------1~--------------3~------3*------|
 G|--------------------------------|
 D|--------------------------------|
 A|--------------------------------|
 E|3~------------------------------|

| / slide up
| \ slide down
| h hammer-on
| p pull-off
| ~ let ring
| + harmonic
| * Mute note
| ^ Volume up
| V Volume down
===============================================================================

Important: The song above is NOT stored on the Chordie server. The original song is hosted at www.guitartabs.cc. Chordie works as a search engine and provides on-the-fly formatting. Chordie does not index songs against artists'/composers' will. To remove this song please click here.

Text color:
Chord color:
Chord grids: 
Font size:    
Page size: 

B C D Em F G
Rate #1 of 5 versions

Jango Player

Login - add to songbook

SHARE PAGE  




You need to log in to post comments