Guitar Tabs, Chords and Lyrics
Server problems seems to be fixed. Chordie has been experiencing problems with songs disappearing. These issues now seems to be fixed, but still verifying the fix. If you find anything strange, please email admin@chordie.com.


Every Morning Breaks Out  Freaky Age

Tabbed By: Yannick.j152@hotmail.com
[Dm] [A#] 
I'm the guy in the town and you now they go on and leave me behind
[Dm] [A#] 
There's a gang in the town that you don't wanna meet least not late at night
[F]Have you ever seen t[Am]he way things go tod[A#]ay
1,2,3,4
[Dm]There's a guy in my class and I don't[A#] wanna say that I think that he's right
[Dm]There's a girl in my class and I'm no[A#]t gona say that I think that she's hot
[F]Have you ever seen th[Am]e way things go to[A#]day
[Dm]There's a guy in my class and I don[A#]'t wanna say that I think that he's right
[Dm]There's a girl in my class and I'm n[A#]ot gona say that I think that she's hot
[F]Have you ever seen t[Am]he way things go tod[A#]ay
[F]And it feels like we're together[D5] while we're driving home together[A#] and it
feels like every morning[B] breaks out X2
F D5 A# B solo1
[Dm] [A#] [Dm] [A#]  
[Dm]I'm the guy in the town and you now[A#] I'm the one that will always be right
[Dm]And this girl in my class she will[A#] never believe all the things I tried
[F]Have you ever seen th[Am]e way things go toda[A#]y
[F]And it feels just like I'm better[D5] while we're driving home together[A#] and it
feels like every morning[B] breaks out X2
F D5 A# B X2 solo2
[F]And it feels like we're togethe[D5]r while we're driving home together[A#] and it
feels like every morning[B] breaks out X4
Breakdown+solo3 F5 G5 A#5 B5 X2
[F]And it feels like we're togethe[D5]r while we're driving home together a[A#]nd it
feels like every morning[B] breaks out
Solo1:
 
 |-------------------------------------------------------------------------------|
 |-----------------------------10--11--10--8---10--11--10---8----10--8?10b-------|
 |---7--5---7---10---12----10------------------------------------------------12--|
 |-------------------------------------------------------------------------------|
 |-------------------------------------------------------------------------------|
 |-------------------------------------------------------------------------------|

Solo2
 
 |-------------------------------------------------------------------------------|
 |-----------------------------10--11--10--8---10--11--10---8----10--8?10b-------|
 |---7--5---7---10---12----10------------------------------------------------12--|
 |-------------------------------------------------------------------------------|
 |-------------------------------------------------------------------------------|
 |-------------------------------------------------------------------------------|
 |----------------------------------------------------------------------------------------|
 |-----------------------------10--11--10--8---10--11--10--8-10--8----13131313--15151515--|
 |---7--5---7---10---12----10----------------------------------------18181818--20202020---|
 |----------------------------------------------------------------------------------------|
 |----------------------------------------------------------------------------------------|
 |----------------------------------------------------------------------------------------|

Solo3
 
 |-------------------------------------------------------------------------------------|
 |-------------------------------------------------11-10-8 X11----13131313--15151515---|
 |55555555-77777777-1010101010101010-1212121212121212---------------18181818-20202020--|
 |-------------------------------------------------------------------------------------|
 |-------------------------------------------------------------------------------------|
 |-------------------------------------------------------------------------------------|


Important: The song above is NOT stored on the Chordie server. The original song is hosted at www.guitartabs.cc. Chordie works as a search engine and provides on-the-fly formatting. Chordie does not index songs against artists'/composers' will. To remove this song please click here.

Text color:
Chord color:
Chord grids: 
Font size:    
Page size: 

A# Am B D5 Dm F
Rate #1 of 2 versions

Login - add to songbook

SHARE PAGE  



You need to log in to post comments