Guitar Tabs, Chords and Lyrics
Server problems seems to be fixed. Chordie has been experiencing problems with songs disappearing. These issues now seems to be fixed, but still verifying the fix. If you find anything strange, please email admin@chordie.com.


Heartbreaker  Free

 
 -------------------------------------------------------------------------------

HEARTBREAKER Free
(Rodgers)
(Heartbreaker (1972))
 
 -------------------------------------------------------------------------------

Tabbed by: varannion
Email: dm_hughes1@hotmail.com
Tuning: standard
Intro
~~~~~ ~~~~~ bss
[(Dm)]  
 
 e|----------------------------|--------------------------|
 B|----------------------------|--------------------------|
 G|--------------------5-------|--------------------------|
 D|--------------------5h7-----|--------------------------|
 A|--------------5--8-------8--|--5---(5)--3--5---(5)--8--|
 E|--------5h8-----------------|--------------------------|

| ~~~~~ ~~~~~ bss
 
 e|----------------------------|--------------------------|
 B|--------------------6-------|--------------------------|
 G|--------------------5-------|--------------------------|
 D|----------------------------|--------------------------|
 A|----------------------------|--5---(5)\----5---(5)--8--|
 E|----------------------------|--------------------------|

~~~~~ ~~~~~ ~~~~~ bss
 
 e|----------------------------|--------------------------|
 B|----------------------------|--------------------------|
 G|--------------------5-------|--------------------------|
 D|--------------------5h7-----|--------------------------|
 A|----5---------5--8-------8--|--5---(5)--3--5---(5)--8--|
 E|--------5--8----------------|--------------------------|

| ~~~ bss~~~~~ ~~~~~
 
 e|----------------------------|--------------------------|
 B|--------------8b10r8--------|--8-6---------------------|
 G|----------------------------|------7------7---(7)--7/--|
 D|----------------------------|--------------------------|
 A|----5-----------------------|--------------------------|
 E|----------------------------|--------------------------|

Verse 1
~~~~~ ~~~~~ ~~~~~ bss
 
 e|----------------------------|--------------------------|
 B|----------------------------|--------------------------|
 G|--------------------5-------|--------------------------|
 D|--------------------5h7-----|-------------3---------3--|
 A|----5---------5--8-------8--|--5---(5)--3---5-(5)-x----|
 E|--------5--8----------------|--------------------------|

|
 
 e|----------------------------|--------------------------|
 B|--------------------6-------|--------------------------|
 G|---/22--------------5-------|--------------------------|
 D|----------------------------|--------------------------|
 A|-----------------8----------|--------------------------|
 E|----------------------------|--------------------------|

~~~~~ ~~~~~ ~~~~~ bss
 
 e|----------------------------|--------------------------|
 B|--------------------6-------|--------------------------|
 G|--------------------5-------|--------------------------|
 D|----------------------------|-----------------------3--|
 A|----5---------5--8----------|--5--------3---5-(5)-x----|
 E|--------5--8----------------|--------------------------|

|
 
 e|----------------------------|--------------------------|
 B|----------------------------|--------------------------|
 G|----------------------------|--------------------------|
 D|----------------------------|--------------------------|
 A|----------------------------|--------------------------|
 E|----------------------------|--------------------------|

~~~~~ bss ~~~~~ ~~~~~ bss
 
 e|----------------------------|--------------------------|
 B|----------------------------|--------------------------|
 G|--------------------5-------|--------------------------|
 D|--------------------5h7-----|-----------------------3--|
 A|----5---------5----------8--|--5--(5)-x-3--5--(5)-x----|
 E|--------5--8-----5----------|--------------------------|

|
 
 e|----------------------------|--------------------------|
 B|----------------------------|--------------------------|
 G|----------------------------|--------------------------|
 D|----------------------------|--------------------------|
 A|----------------------------|--------------------------|
 E|----------------------------|--------------------------|

~~~~~ ~~~~~ ~~~~~ bss
 
 e|----------------------------|--------------------------|
 B|----------------------------|--------------------------|
 G|--------------------5-------|--------------------------|
 D|--------------------5h7-----|--------------------5--3--|
 A|----5---------5--8-------8--|--5--(5)-3--5--(5)--------|
 E|--------5--8----------------|--------------------------|

|
 
 e|----------------------------|--------------------------|
 B|----------------------------|--------------------------|
 G|----------------------------|--------------------------|
 D|----------------------------|--------------------------|
 A|----------------------------|--------------------------|
 E|----------------------------|--------------------------|

~~~~~ ~~~~~ ~~~~~ bss
 
 e|----------------------------|--------------------------|
 B|----------------------------|--------------------------|
 G|----------------------------|---------x----------------|
 D|--------------------5h7-----|---------x----------x-3---|
 A|----5---------5--8-------8--|--5--(5)---8-7-5--------0-|
 E|--------5--8----------------|--------------------------|

|
 
 e|----------------------------|--------------------------|
 B|----------------------------|--------------------------|
 G|----------------------------|--------------------------|
 D|----------------------------|--------------------------|
 A|----------------------------|--------------------------|
 E|----------------------------|--------------------------|

[Dm] [F/C]  
 
 e|------------------------------|--1------1------1------1------|
 B|---------------------------5--|--3------3------1------1------|
 G|-------------------------5----|--2------2------2------2------|
 D|----------------------/7------|--0------0------3------3------|
 A|----5-3-----3-5p3-5-8---------|----------------3------3------|
 E|--------5-5-------------------|------------------------------|

| ~~~~~~~~~ ~~~~~~~~~
 
 e|------------------------------|--5------5--------------------|
 B|------------------------------|--6------6------10-----10-----|
 G|------------------------------|--7------7------10-----10-----|
 D|------------------------------|--7------7------10-----10-----|
 A|----5---------5---------------|----------------x------x------|
 E|------------------------------|----------------8------8------|
 |---------- let ring ----------|

[Bb] [Asus4]  
 
 e|----------5-----------------|------5-----5-----5-----5-----5--|
 B|----6-----6--------6-----6--|----5-----5-----5-----5-----5----|
 G|----5h7---7--7p5---5---5----|--7-----7-----7-----7-----7------|
 D|-----------------7----------|---------------------------------|
 A|----------------------------|---------------------------------|
 E|----------------------------|---------------------------------|

|
 
 e|----------------------------|---------------------------------|
 B|----6-----6-----6-----6-----|--5-----5-----5-----5-----5------|
 G|----7-----7-----7-----7-----|--7-----7-----7-----7-----7------|
 D|----8-----8-----8-----8-----|--7-----7-----7-----7-----7------|
 A|----8-----8-----8-----8-----|--7-----7-----7-----7-----7------|
 E|----6-----6-----6-----6-----|--5-----5-----5-----5-----5------|

[A] [Dm] [F/C]  
 
 e|----5-----------------------|--1-----1-----1-----1------|
 B|----5-----------------------|--3-----3-----1-----1------|
 G|----6--------------------5--|--2-----2-----2-----2---2--|
 D|----7--------------5--7-----|--0-----0-----3-----3------|
 A|----------------------------|--------------3-----3------|
 E|----------------------------|---------------------------|

| ~~~~~~~ ~~~~~~ ~~~
 
 e|----------------------------|---------------------------|
 B|----6-----------------------|---------------------------|
 G|----7-----------------------|--12b14------12b14--12b14--|
 D|----8-----------------------|---------------------------|
 A|----8-----------------------|---------------------------|
 E|----6-----------------------|---------------------------|

[Bb]  
 
 e|-----------------5-------------------------------------|
 B|----6------6-----6------------7-----------6--(6)-------|
 G|----5h7----7-----7------------6---5-------5--(5)-------|
 D|--------------------------------------7----------------|
 A|-------------------------------------------------------|
 E|-------------------------------------------------------|

| ~~~~
 
 e|--------------------------------------------10----10---|
 B|-----------------10----------------------10----13------|
 G|------(14)-12b14----12-10-12-12-10-10b12---------------|
 D|-------------------------------------------------------|
 A|-------------------------------------------------------|
 E|-------------------------------------------------------|

[Asus4] [A]  
 
 e|----5--------5--------5--------5--------|--5----------(5)--------------|
 B|----5--------5--------5--------5--------|--6----------(5)--------------|
 G|----7--------7--------7--------7--------|--7----------(6)-------5------|
 D|----7--------7--------7--------7--------|--7----------(7)-------5h7----|
 A|----------------------------------------|---------------------------8--|
 E|----------------------------------------|------------------12\---------|

| ~~~~ ~~~~ ~~~ ~~~~~~~~ ~~~~~
 
 e|----------------------------------------|------------------------------|
 B|----13b15--13b15-13b15\----12b14-12-10--|--12-10---10----------10------|
 G|----------------------------------------|------------------------------|
 D|----------------------------------------|------------------------------|
 A|----------------------------------------|------------------------------|
 E|----------------------------------------|------------------------------|

~~~~~ ~~~~~ bss ~~~~~ bss
[(Dm)]  
 
 e|-----------------------------------|-------------------------------------------|
 B|-----------------------------------|-------------------------------------------|
 G|-----------------------------------|-------------------------------5-----------|
 D|-----------------------------------|-------------------------------5h7---------|
 A|----5------(5)--3--5------(5)--8---|--5------------------5----8-----------8----|
 E|-----------------------------------|-----------5----8--------------------------|

| ~~~~
 
 e|-----------------------------------|-------------------10----------------------|
 B|----10--(10)\---13-----------------|----------------------13-10----------------|
 G|----------------12b14r12-10-10-----|--12-10-------7/12---------12-10-----------|
 D|-------------------------------12--|--------12-----------------------12-10-----|
 A|-----------------------------------|---------------------------------------12--|
 E|-----------------------------------|-------------------------------------------|

Verse 2
~~~~~ ~~~~~ bss ~~~~~ bss
[(Dm)]  
 
 e|----------------------------|------------------------------------|
 B|----------------------------|------------------------------------|
 G|----------------------------|-----------------------------5------|
 D|----------------------------|-----------------------------5h7----|
 A|----5------3----5--------8--|--5----------------5----8--------8--|
 E|----------------------------|---------5----8---------------------|

| ~~~~ bss ~~~~~~~
 
 e|----------------------------|------------------------------------|
 B|----------------------------|------------------------------------|
 G|----------------------x-----|--12b13r12-10----------------5------|
 D|----------------------x--3--|--------------12------(12)---5h7----|
 A|----10\---x-x-0--5----------|---------------------------------8--|
 E|----------------------------|------------------------------------|

~~~~~~ ~~~~ bss ~~~~~~ bss
 
 e|----------------------------|---------------------------|
 B|----------------------------|---------------------------|
 G|----------------------x-----|--------------------5------|
 D|----------------------x-----|--------------------5h7----|
 A|----5--------x-x-5-------8--|--5-----------5--8------8--|
 E|----------------------------|--------5--8---------------|

|
 
 e|----------------------------|--------------------------|
 B|----------------------------|--------------------------|
 G|---------------------5-5b7--|--5b7---------------------|
 D|----------------------------|--------------------------|
 A|----------------------------|--------------------------|
 E|----------------------------|--------------------------|

~~~~~ ~~~~~ bss ~~~~~ bss
 
 e|-------------------------------|----------------------------|
 B|-------------------------------|----------------------------|
 G|-------------------------------|--------------------5-------|
 D|-------------------------------|--------------------5h7-----|
 A|----5--------x-3-----5------8--|--5-----------5--8-------8--|
 E|-------------------------------|--------5--8----------------|

|
 
 e|-------------------------------|----------------------------|
 B|-------------------------------|----------------------------|
 G|-------------------------------|----------------------------|
 D|-------------------------------|----------------------------|
 A|-------------------------------|----------------------------|
 E|-------------------------------|----------------------------|

~~~~~ ~~~~~ ~~~~~ bss
 
 e|-------------------------------|----------------------------|
 B|-------------------------------|----------------------------|
 G|-------------------------------|--------------------5-------|
 D|-------------------------------|--------------------5h7-----|
 A|----5------x-3--5-----x--------|--5-----------5--8-------8--|
 E|-------------------------------|--------5--8----------------|

|
 
 e|-------------------------------|----------------------------|
 B|-------------------------------|----------------------------|
 G|------------------------5-5b7--|--5b7---r5------------------|
 D|-------------------------------|-----------5b7--------------|
 A|-------------------------------|----------------------------|
 E|-------------------------------|----------------------------|

~~~~~ ~~~~~ bss ~~~~~ bss
 
 e|-------------------------------|----------------------------|
 B|-------------------------------|----------------------------|
 G|-------------------------------|--------------------5-------|
 D|----------------------------3--|--------------------5h7-----|
 A|----5-------x-3--x-5------x----|--5-----------5--8-------8--|
 E|-------------------------------|--------5--8----------------|

|
 
 e|-------------------------------|----------------------------|
 B|-------------------------------|----------------------------|
 G|-------------------------------|----------------------------|
 D|-------------------------------|----------------------------|
 A|-------------------------------|----------------------------|
 E|-------------------------------|----------------------------|

~~~~~~ ~~~~~ bss
 
 e|-------------------------------|----------------------------|
 B|-------------------------------|-------------------------5--|
 G|--------------------------x----|-----------------------5----|
 D|--------------------------x-3--|--------------------/7------|
 A|----5------3--5--5-----5-------|--5-3--------3-5-8----------|
 E|-------------------------------|------5-5-5-----------------|

|
 
 e|-------------------------------|----------------------------|
 B|-------------------------------|----------------------------|
 G|-------------------------------|----------------------------|
 D|-------------------------------|----------------------------|
 A|-------------------------------|----------------------------|
 E|-------------------------------|----------------------------|

[Dm] [F/C] [Bb]  
 
 e|----1------1------1-----1------|-------------------------------|
 B|----3------3------1-----1------|--6----6--7-----5-------6------|
 G|----2------2------2-----2------|--5h7--7--6--7--7p5-----5------|
 D|----0------0------3-----3------|---------------------7---------|
 A|------------------3-----3------|-------------------------------|
 E|-------------------------------|-------------------------------|

|
 
 e|----5------5-------------------|-------------------------------|
 B|----6------6------10----10-----|--6------6------6------6-------|
 G|----7------7------10----10-----|--7------7------7------7-------|
 D|----7------7------10----10-----|--8------8------8------8-------|
 A|------------------x-----x------|--8------8------8------8-------|
 E|------------------8-----8------|--6------6------6------6-------|

[Asus4] [A]  
 
 e|----5----5---5---5---5---5---5--|-(5)---------(5)--5-----------|
 B|----5----5---5---5---5---5---5--|-(5)---------(5)--5--------6--|
 G|----7----7---7---7---7---7---6--|-(6)---------(6)-----------5--|
 D|----7----7---7---7---7---7---7--|-(7)---------(7)-----5--7-----|
 A|--------------------------------|------------------------------|
 E|--------------------------------|------------------------------|

|
 
 e|--------------------------------|------------------------------|
 B|--------------------------------|------------------------------|
 G|----7----7----7----7----7----6--|-(6)---------(6)--------------|
 D|----7----7----7----7----7----7--|-(7)---------(7)--------------|
 A|----7----7----7----7----7----7--|-(7)---------(7)--------------|
 E|----5----5----5----5----5----5--|-(5)---------(5)--------------|

Pre-solo
[Dm] [F/C] [Bb]  
 
 e|----1------1------1------1------|-------------------------------|
 B|----3------3------1------1------|--6----6---6---6-------6-------|
 G|----2------2------2------2------|--5h7--7---7---7p5-----5-------|
 D|----0------0------3------3------|--------------------7----------|
 A|------------------3------3------|-------------------------------|
 E|--------------------------------|-------------------------------|

| ~~~~~
 
 e|--------------------------------|---------------10--------------|
 B|--------------------------------|------13b15-------13-10----10--|
 G|-----------12b14-(14)-12b14r12--|--10--------------------12-----|
 D|--------------------------------|-------------------------------|
 A|--------------------------------|-------------------------------|
 E|--------------------------------|-------------------------------|
 |------------------------------ let ring -----------------------------|

[Asus4] [A]  
 
 e|--------5-----5-----5-----5-----5----|------5-----5-----5-----5-----5----|
 B|------5-----5-----5-----5-----5------|----5-----5-----5-----5-----5------|
 G|----7-----7-----7-----7-----7-----7--|--6-----6-----6-----6-----6--------|
 D|-------------------------------------|-----------------------------------|
 A|-------------------------------------|-----------------------------------|
 E|-------------------------------------|-----------------------------------|

| ~~~~~~~~~ ~~~~~~~~
 
 e|-------------------------------------|-----------------------------------|
 B|----13b15---------r13-13b15-13b15-12-|--12b14-------12b14-12b14-12b14r12-|
 G|-------------------------------------|-----------------------------------|
 D|-------------------------------------|-----------------------------------|
 A|-------------------------------------|-----------------------------------|
 E|-------------------------------------|-----------------------------------|

Guitar solo
[D5] [C5]  
 
 e|----5-------5--------3-----------------3----------|
 B|----3-------3--------1-----------------1----------|
 G|--------------------------------------------------|
 D|--------------------------------------------------|
 A|----5-------5--------3-----------------3----------|
 E|--------------------------------------------------|

|
 
 e|---------------10---------------------------------|
 B|----13b15---------13-10--------------------10-----|
 G|------------------------12b14-12-10-12b14-----12--|
 D|--------------------------------------------------|
 A|--------------------------------------------------|
 E|--------------------------------------------------|

[G5] [Bb5] [C5]  
 
 e|------------------------------------------|
 B|-------------------------------------1/3--|
 G|--------------------------------3---------|
 D|----5-------5-------5-----------3---------|
 A|--------------------------------1----3/5--|
 E|----3-------3-------3---------------------|

| ~~~~~~~~~ ~~~~~~
 
 e|------------------------------------------|
 B|------------------------------------------|
 G|---p10-12------(12)-------12-12-----12----|
 D|--------------------10/12-12-12-----12----|
 A|------------------------------------------|
 E|------------------------------------------|

[D5] [C5]  
 
 e|----5-----------5---------3------------3-----------------|
 B|----3-----------3---------1------------1-----------------|
 G|---------------------------------------------------------|
 D|---------------------------------------------------------|
 A|----5-----------5---------3------------3-----------------|
 E|---------------------------------------------------------|

| ~~~
 
 e|--------------------------10-10----------10--------------|
 B|----10--------------------10-10-------10----13p10--------|
 G|----10--------------10----10-10-12b14-------------12b14--|
 D|-------12-10-12-12-----12--------------------------------|
 A|---------------------------------------------------------|
 E|---------------------------------------------------------|

[G5] [Bb5] [C5]  
 
 e|----------------------------------------3/5--|
 B|----------------------------------------1/3--|
 G|-----------------------------------3---------|
 D|----5------------------------------3---------|
 A|-----------------------------------1----3/5--|
 E|----3----------------------------------------|

| ~~~~~~~~~
 
 e|---------------------------------------------|
 B|-----------13b15------(15)---15b18--15b18----|
 G|----r12p10-----------------------------------|
 D|---------------------------------------------|
 A|---------------------------------------------|
 E|---------------------------------------------|

[D5] [C5] [G5] [Bb5] [C5]  
 
 e|----5-------5-------3--------3--------|-------------------------------|
 B|----3-------3-------1--------1--------|-------------------------------|
 G|--------------------------------------|----------------------3--5-----|
 D|--------------------------------------|--5-------------------3--------|
 A|----5-------5-------3--------3--------|----------------------1--3-----|
 E|--------------------------------------|--3----------------------------|

| ~~~~~ ~~~~~ ~~~~~ ~~~
 
 e|--------------------------------------|--------15-15-15--15b17r15p13--|
 B|----15----15b18----15----15b18-15b18--|--15---------------------------|
 G|--------------------------------------|-------------------------------|
 D|--------------------------------------|-------------------------------|
 A|--------------------------------------|-------------------------------|
 E|--------------------------------------|-------------------------------|

[D5] [C5]  
 
 e|----5------------------5\3----3-------------3-------------|
 B|----3------------------3\1----1-------------1-------------|
 G|----------------------------------------------------------|
 D|----------------------------------------------------------|
 A|----5------------------5\3----3-------------3-------------|
 E|----------------------------------------------------------|

| ~~~~~~~
 
 e|----15b17--15b17------15b17-15b17r15-(15)-15b17-15b17r16--|
 B|----------------------------------------------------------|
 G|----------------------------------------------------------|
 D|----------------------------------------------------------|
 A|----------------------------------------------------------|
 E|----------------------------------------------------------|

[G5] [Bb5] [C5]  
 
 e|----------------------------------------------------|
 B|----------------------------------------------------|
 G|----------------------------------------3---5---5---|
 D|----5----------------5-----5------------3---5---5---|
 A|----------------------------------------1---3---3---|
 E|----3----------------3-----3------------------------|

| ~~~~~ ~~~~~
 
 e|---(16)r15-13-15-15----15----13----13---------------|
 B|--------------------------------15----15-15b18------|
 G|----------------------------------------------------|
 D|----------------------------------------------------|
 A|----------------------------------------------------|
 E|----------------------------------------------------|

( Tab from: http://www.guitartabs.cc/tabs/f/free/heartbreaker_tab_ver_2.html )
[Dm] [F/C]  
 
 e|----------5---------------------------------|
 B|----------6-----------10-------10-----------|
 G|----------7-----------10-------10-----------|
 D|----7-----7-----------10-------10-----------|
 A|----5-----5---------------------------------|
 E|--------------------------------------------|

| ~~~~~
 
 e|--------------------------------------------|
 B|----15----15-13-------------------------10--|
 G|----------------14\12-12-10----10-12b14-----|
 D|----------------------------12--------------|
 A|--------------------------------------------|
 E|--------------------------------------------|

[Bb]  
 
 e|------------------------------------------------|
 B|----6---6---6-----6--------6-------6------------|
 G|----5---7---7-----7--------7p5-----5------------|
 D|--------------------------------7---------------|
 A|------------------------------------------------|
 E|------------------------------------------------|

| ~~~~~~~~~~~~~~~
 
 e|----10--------------------------------10--------|
 B|-------13p10-13b15-13b15-----------------13-10--|
 G|------------------------------------------------|
 D|------------------------------------------------|
 A|------------------------------------------------|
 E|------------------------------------------------|
 |-------------------------------- let ring --

[Asus4]  
 
 e|----------5-------5-------5-------5-------5-----|
 B|-------5-------5-------5-------5-------5-----5--|
 G|----7-------7-------7-------7-------7-----------|
 D|------------------------------------------------|
 A|------------------------------------------------|
 E|------------------------------------------------|

| ~~~~~~~~~~~~~~~~~~~~~
 
 e|------------------------------------------------|
 B|----13-13b15---------------------13b15--r13p12--|
 G|------------------------------------------------|
 D|------------------------------------------------|
 A|------------------------------------------------|
 E|------------------------------------------------|
 ------------------------------|

[A]  
 
 e|----------5--------5--------5-------------------|
 B|-------5--------5--------5--------5\------------|
 G|----6--------6--------6--------6----------------|
 D|---------------------------------------6h7------|
 A|--------------------------------------------8---|
 E|------------------------------------------------|

| ~~~~~~~~~~~~~~~
 
 e|------------------------------------------------|
 B|----12b14----------------12b14--12b14-12b14r12--|
 G|------------------------------------------------|
 D|------------------------------------------------|
 A|------------------------------------------------|
 E|------------------------------------------------|

~~~~~ ~~~~~ bss ~~~~~ bss
[(Dm)]  
 
 e|-------------------------------|----------------------------|
 B|-------------------------------|----------------------------|
 G|-------------------------------|--------------------5-------|
 D|-------------------------------|--------------------5h7-----|
 A|----5----(5)---3-----5------8--|--5--------3-/5--8-------8--|
 E|-------------------------------|--------5-------------------|

| ~~~~~~~~~~~~
 
 e|-------------------------------|----------------------------|
 B|----10-12---13b15------13b15---|-------------------10-8h10--|
 G|-------------------------------|--------10--12--12----------|
 D|-------------------------------|----------------------------|
 A|-------------------------------|----------------------------|
 E|-------------------------------|----------------------------|

~~~~~ ~~~~~ bss ~~~~~ bss
 
 e|-------------------------------|----------------------------|
 B|-------------------------------|----------------------------|
 G|-------------------------------|--------------------5-------|
 D|-------------------------------|--------------------5h7-----|
 A|----5----(5)---3-----5------8--|--5--------3--5--8-------8--|
 E|-------------------------------|--------5-------------------|

| ~~~~~~~~~~~~~~~~~~~~~~~~~~~~~~~~~~~~~~
 
 e|-------------------------------|----------------------------|
 B|-------------------------------|----------------------------|
 G|----12-------------------------|----------------------------|
 D|-------12----------------------|----------------------------|
 A|-------------------------------|----------------------------|
 E|-------------------------------|----------------------------|

Verse 3
~~~~~ ~~~~~ bss ~~~~~ bss
 
 e|-------------------------------|----------------------------|
 B|-------------------------------|----------------------------|
 G|-------------------------------|--------------------5-------|
 D|-------------------------------|--------------------5h7-----|
 A|----5----(5)---3-----5------8--|--5--------3-/5--8-------8--|
 E|-------------------------------|--------5-------------------|

|
 
 e|-------------------------------|----------------------------|
 B|-------------------------------|----------------------------|
 G|-------------------------------|----------------------------|
 D|-------------------------------|----------------------------|
 A|-------------------------------|----------------------------|
 E|-------------------------------|----------------------------|

~~~~~~ ~~~~ bss ~~~~~ bss
[Dm]  
 
 e|-------------------------------|----------------------------|
 B|-------------------------------|----------------------------|
 G|----------------------x--------|--------------------5-------|
 D|----------------------x-----3--|--------------------5h7-----|
 A|----5--------x-x-5-------------|--5-------3--5--8--------8--|
 E|-------------------------------|-------5--------------------|

|
 
 e|-------------------------------|----------------------------|
 B|-------------------------------|----------------------------|
 G|------------------------5-5b7--|--5b7---------------5-------|
 D|-------------------------------|--------------------5h7/----|
 A|-------------------------------|----------------------------|
 E|-------------------------------|----------------------------|

~~~~~~~ ~~~~~ bss ~~~~~ bss
 
 e|-------------------------------|----------------------------|
 B|-------------------------------|----------------------------|
 G|-------------------------------|--------------------5-------|
 D|-------------------------------|--------------------5h7-----|
 A|----5--------x-5-----5------8--|--5--------3-/5--8-------8--|
 E|-------------------------------|--------5-------------------|

|
 
 e|-------------------------------|----------------------------|
 B|-------------------------------|----------------------------|
 G|-------------------------------|--------------------5-------|
 D|-------------------------------|--------------------5h7/----|
 A|-------------------------------|----------------------------|
 E|-------------------------------|----------------------------|

~~~~ ~~~~~ ~~~~~ bss
 
 e|-------------------------------|----------------------------|
 B|-------------------------------|----------------------------|
 G|-------------------------------|--------------------5-------|
 D|-------------------------------|--------------------5h7-----|
 A|----5------x-3--5-----x--------|--5-------3--5--8--------8--|
 E|-------------------------------|-------5--------------------|

| bss bss ~~~~~~~~~~~~~
 
 e|-------------------------------|----------------------------|
 B|--------------------------6b8--|-------6--------------------|
 G|-------------------------------|-------------7--------------|
 D|----------------5--------------|----------------------------|
 A|-------------------5-----------|----------------------------|
 E|-------------------------------|----------------------------|

~~~~~ ~~~~~ bss ~~~~~ bss
 
 e|-------------------------------|----------------------------|
 B|-------------------------------|----------------------------|
 G|-------------------------------|--------------------5-------|
 D|----------------------------3--|--------------------5h7-----|
 A|----5-------x-3--x-5------x----|--5--------3--5--8-------8--|
 E|-------------------------------|--------5-------------------|

|
 
 e|-------------------------------|----------------------------|
 B|-------------------------------|----------------------------|
 G|-------------------------------|----------------------------|
 D|-------------------------------|----------------------------|
 A|-------------------------------|----------------------------|
 E|-------------------------------|----------------------------|

~~~~~~ ~~~~~ bss
 
 e|-------------------------------|----------------------------|
 B|-------------------------------|-------------------------5--|
 G|--------------------------x----|-----------------------5----|
 D|--------------------------x-3--|--------------------/7------|
 A|----5------3--5--5-----5-------|--5-3--------3-5-8----------|
 E|-------------------------------|------5-5-5-----------------|

|
 
 e|-------------------------------|--10-10-10------------------|
 B|-------------------------------|--10-10-10------------------|
 G|-------------------------------|----------------------------|
 D|-------------------------------|----------------------------|
 A|-------------------------------|----------------------------|
 E|-------------------------------|----------------------------|

[Dm] [F/C] [Bb]  
 
 e|----1------1------1-----1------|-------------------------------|
 B|----3------3------1-----1------|--6----6--7-----5-------6------|
 G|----2------2------2-----2------|--5h7--7--6--7--7p5-----5------|
 D|----9------0------3-----3------|---------------------7---------|
 A|------------------3-----3------|-------------------------------|
 E|-------------------------------|-------------------------------|

|
 
 e|----5------5-------------------|-------------------------------|
 B|----6------6------10----10-----|-------------------------------|
 G|----7------7------10----10-----|--7------7------7------7-------|
 D|----7------7------10----10-----|--8------8------8------8-------|
 A|------------------x-----x------|--8------8------8------8-------|
 E|------------------8-----8------|--6------6------6------6-------|
 |----------------------------- let ring -----------------------------|

[Asus4] [A]  
 
 e|--------5-----5-----5-----5-----5----|------5-----5-----5--------5------|
 B|------5-----5-----5-----5-----5------|----5-----5-----5-----5---5----5--|
 G|----7-----7-----7-----7-----7-----7--|--6-----6-----6-----6---6----6----|
 D|-------------------------------------|----------------------------------|
 A|-------------------------------------|----------------------------------|
 E|-------------------------------------|----------------------------------|

|
 
 e|-------------------------------------|----------------------------------|
 B|-------------------------------------|----------------------------------|
 G|-------------------------------------|----------------------------------|
 D|-------------------------------------|----------------------------------|
 A|-------------------------------------|----------------------------------|
 E|-------------------------------------|----------------------------------|
 |------------------------------ let ring -----------------------------|

[Asus4] [A]  
 
 e|--------5-----5-----5-----5-----5----|------5-----5-----5-----5-----5----|
 B|------5-----5-----5-----5-----5------|----5-----5-----5-----5-----5------|
 G|----7-----7-----7-----7-----7-----7--|--6-----6-----6-----6-----6-----6--|
 D|-------------------------------------|-----------------------------------|
 A|-------------------------------------|-----------------------------------|
 E|-------------------------------------|-----------------------------------|

|
 
 e|-------------------------------------|-----------------------------------|
 B|-------------------------------------|-----------------------------------|
 G|-------------------------------------|-----------------------------------|
 D|-------------------------------------|-----------------------------------|
 A|-------------------------------------|-----------------------------------|
 E|-------------------------------------|-----------------------------------|
 |------------------------------ let ring -----------------------------|

[Asus4] [A]  
 
 e|--------5-----5-----5---------5------|------5-----5-----5-----5-----5----|
 B|------5-----5-----5-----5---------5--|----5-----5-----5-----5-----5------|
 G|----7-----7-----7-----7---7-----7----|--6-----6-----6-----6-----6-----6--|
 D|-------------------------------------|-----------------------------------|
 A|-------------------------------------|-----------------------------------|
 E|-------------------------------------|-----------------------------------|

|
 
 e|-------------------------------------|-----------------------------------|
 B|-------------------------------------|-----------------------------------|
 G|-------------------------------------|-----------------------------------|
 D|-------------------------------------|-----------------------------------|
 A|-------------------------------------|-----------------------------------|
 E|-------------------------------------|-----------------------------------|
 |----------------------------- let ring -----------------------------|

[Asus4] [A]  
 
 e|--------5-----5-----5-----5-----5----|------5-----5-----5-----5-----5---|
 B|------5-----5-----5-----5-----5------|----5-----5-----5-----5-----5-----|
 G|----7-----7-----7-----7-----7-----7--|--6-----6-----6-----6-----6----6--|
 D|-------------------------------------|----------------------------------|
 A|-------------------------------------|----------------------------------|
 E|-------------------------------------|----------------------------------|

|
 
 e|-------------------------------------|----------------------------------|
 B|-------------------------------------|----------------------------------|
 G|-------------------------------------|----------------------------------|
 D|-------------------------------------|----------------------------------|
 A|-------------------------------------|----------------------------------|
 E|-------------------------------------|----------------------------------|

Outro
 
 |----------------------------- let ring -----------------------------|

[Asus4] [A]  
 
 e|--------5-----5-----5-----5-----5----|------5-----5-----5-----5-----5---|
 B|------5-----5-----5-----5-----5------|----5-----5-----5-----5-----5-----|
 G|----7-----7-----7-----7-----7-----7--|--6-----6-----6-----6-----6----6--|
 D|-------------------------------------|----------------------------------|
 A|-------------------------------------|----------------------------------|
 E|-------------------------------------|----------------------------------|

|
 
 e|----5---------------------------(5)--|--5--------------------------(5)--|
 B|----5---------------------------(5)--|--5--------------------------(5)--|
 G|----7---------------------------(7)--|--6--------------------------(6)--|
 D|----7---------------------------(7)--|--7--------------------------(7)--|
 A|----7---------------------------(7)--|--7--------------------------(7)--|
 E|----5---------------------------(5)--|--5--------------------------(5)--|
 |------------------------------ let ring -----------------------------|

[Asus4] [A]  
 
 e|--------5-----5-----5-----5-----5----|------5-----5-----5-----5-----5----|
 B|------5-----5-----5-----5-----5------|----5-----5-----5-----5-----5------|
 G|----7-----7-----7-----7-----7-----7--|--6-----6-----6-----6-----6-----6--|
 D|-------------------------------------|-----------------------------------|
 A|-------------------------------------|-----------------------------------|
 E|-------------------------------------|-----------------------------------|

|
 
 e|----5---------------------------(5)--|--5---------------------------(5)--|
 B|----5---------------------------(5)--|--5---------------------------(5)--|
 G|----7---------------------------(7)--|--6---------------------------(6)--|
 D|----7---------------------------(7)--|--7---------------------------(7)--|
 A|----7---------------------------(7)--|--7---------------------------(7)--|
 E|----6---------------------------(5)--|--5---------------------------(5)--|
 |------------ let ring -----------|

[Asus4]  
 
 e|--------5-----5-----5-----5-----5----|
 B|------5-----5-----5-----5-----5------|
 G|----7-----7-----7-----7-----7-----7--|
 D|-------------------------------------|
 A|-------------------------------------|
 E|-------------------------------------|

|
 
 e|-------------------------------------|
 B|------------------------12----10-12--|
 G|---------------------------11--------|
 D|-------------------------------------|
 A|-------------------------------------|
 E|-------------------------------------|

Outro solo
 
 |------------------------ let ring ------------------------|

[A]  
 
 e|------------5----------5----------5----------5----------5-----|
 B|--------5----------5----------5----------5----------5---------|
 G|----6----------6----------6----------6----------6----------6--|
 D|--------------------------------------------------------------|
 A|--------------------------------------------------------------|
 E|--------------------------------------------------------------|

| ~~~~~~
 
 e|-------------------------------------------------12-----------|
 B|----12b14r12-10-10-------12b14r12b14r12b14r12b14----12b14r12--|
 G|--------------------------------------------------------------|
 D|--------------------------------------------------------------|
 A|--------------------------------------------------------------|
 E|--------------------------------------------------------------|
 |-------------------------------- let ring --------------------------------|

[Asus4] [A]  
 
 e|--------5-----5-----5-----5-----5----|------5------5------5------5------5-----|
 B|------5-----5-----5-----5-----5------|----5------5------5------5------5-------|
 G|----7-----7-----7-----7-----7-----7--|--6------6------6------6------6------6--|
 D|-------------------------------------|----------------------------------------|
 A|-------------------------------------|----------------------------------------|
 E|-------------------------------------|----------------------------------------|

| ~~~~~~ ~~~~~~ ~~~~~~ ~~~~~~
 
 e|-------------------------------------|----------------------------------------|
 B|------10------10------10------10-----|----13b15-12b14--(14)--12-10-x-x-10-12--|
 G|-------------------------------------|----------------------------------------|
 D|-------------------------------------|----------------------------------------|
 A|-------------------------------------|----------------------------------------|
 E|-------------------------------------|----------------------------------------|
 |---------------------------------- let ring ----------------------------------|

[Asus4] [A]  
 
 e|--------5-------5-------5-------5-------5-----|------5-----5-----5-----5-----5----|
 B|------5-------5-------5-------5-------5-------|----5-----5-----5-----5-----5------|
 G|----7-------7-------7-------7-------7------7--|--6-----6-----6-----6-----6-----6--|
 D|----------------------------------------------|-----------------------------------|
 A|----------------------------------------------|-----------------------------------|
 E|----------------------------------------------|-----------------------------------|

| ~~~~~~~~ ~~~
 
 e|------------------------12--------------------|-----------------------------------|
 B|----13b15------(15)--------12b14r12-10-12-----|----12----------10-10-10----12-10--|
 G|------------------------------------------11--|-------11----------------11--------|
 D|----------------------------------------------|-----------------------------------|
 A|----------------------------------------------|-----------------------------------|
 E|----------------------------------------------|-----------------------------------|
 |------------------------ let ring ------------------------|

[Asus4]  
 
 e|----------5----------5----------5----------5----------5-------|
 B|-------5----------5----------5----------5----------5----------|
 G|----7----------7----------7----------7----------7----------7--|
 D|--------------------------------------------------------------|
 A|--------------------------------------------------------------|
 E|--------------------------------------------------------------|

| ~~~~~~~~~~~~
 
 e|--------------------------------------------------------------|
 B|----(10)-----------------13b15r13b15r13b15r13b15r13b15r13b15--|
 G|--------------------------------------------------------------|
 D|--------------------------------------------------------------|
 A|--------------------------------------------------------------|
 E|--------------------------------------------------------------|
 |------------------- let ring -------------------|

[A]  
 
 e|----------5--------5--------5--------5--------5-----|
 B|-------5--------5--------5--------5--------5--------|
 G|----6--------6--------6--------6--------6--------6--|
 D|----------------------------------------------------|
 A|----------------------------------------------------|
 E|----------------------------------------------------|

| ~~~~~ hold bend rpb hold bend rpb
 
 e|--------------------------12------------12----------|
 B|----12-10-----------12b14----(14)r12b14----(14)r12--|
 G|----------------------------------------------------|
 D|----------------------------------------------------|
 A|----------------------------------------------------|
 E|----------------------------------------------------|
 |------------------------------ let ring -----------------------------|

[Asus4] [A]  
 
 e|--------5------5------5------5------5-----|----5----5----5----5----5-----|
 B|------5------5------5------5------5-------|---5----5----5----5----5------|
 G|----7------7------7------7------7------7--|--6----6----6----6----6----6--|
 D|------------------------------------------|------------------------------|
 A|-------------------------------

Important: The song above is NOT stored on the Chordie server. The original song is hosted at www.guitartabs.cc. Chordie works as a search engine and provides on-the-fly formatting. Chordie does not index songs against artists'/composers' will. To remove this song please click here.

Text color:
Chord color:
Chord grids: 
Font size:    
Page size: 

A Asus4 Bb Bb5 C5 D5 Dm F/C G5
Rate #1 of 1 versions

Jango Player

Login - add to songbook

SHARE PAGE  




You need to log in to post comments