Guitar Tabs, Chords and Lyrics
Server problems seems to be fixed. Chordie has been experiencing problems with songs disappearing. These issues now seems to be fixed, but still verifying the fix. If you find anything strange, please email admin@chordie.com.


Angry Machine  Fresh Body Shop

 
 -----------------------------------------------------------------------------

ANGRY MACHINE - Fresh Body Shop
 
 -----------------------------------------------------------------------------

Album: Make This End
Year: 2006
Tabbed by: Jeff Kroeger
Email: xxthejackalxx@gmail.com
Tuning: B Standard
Intro/Verses:
[E] [E] [E] [E] [E] [E] [E] [E] [E] [E] [E] [E] [E] [E] [E] [E]  
 
 B ||--------------------------|--------------------------|
 F#||--------------------------|--------------------------|
 D ||--------------------0--2--|--------------------0--2--|
 A ||--2--2-----2--2--2--------|--2--2-----2--2--2--------|
 E ||--------------------------|--------------------------|
 B ||--------------------------|--------------------------|

[E] [E] [E] [E] [E] [E] [E] [E] [E] [E] [E] [E] [E] [E] [E] [E]  
 
 |--------------------------|-------------------------- ||
 |--------------------------|-------------------------- ||no repeat for Intro
 |--------------------0--2--|--------------------0-----:|| 4 X for Verse
 |--2--2-----2--2--2--------|--2--2-----2--2--2-----2--:||
 |--------------------------|-------------------------- ||
 |--------------------------|-------------------------- ||

Chorus 1:
Q Q E Q E E Q Q E E E
 
 || ------------------------|------------------------ ||
 || ------------------------|------------------------ ||
 ||:------------------------|------------------------:|| 4X
 ||:---------------------0--|--L--2------------------:||
 || --3----3----2--0--------|------------------------ ||
 || ------------------------|----------0----0--3--0-- ||

Interlude 1:
PM PM PM PM PM PM PM PM PM PM
[E] [E] [E] [E] [E] [E] [E] [E] [E] [E] [E] [E] [E] [E] [E] [E]  
 
 |--------------------------|--------------------------|
 |--------------------------|--------------------------|
 |--------------------------|--------------------------|
 |--------5-----5-----5-----|--------5-----5-----5-----|
 |--------------------------|--------------------------|
 |--0--0-----0-----0-----0--|--0--0-----0-----0-----0--|

( Tab from: http://www.guitartabs.cc/tabs/f/fresh_body_shop/angry_machine_tab.html )
PM PM PM PM PM PM PM PM PM
[E] [E] [E] [E] [E] [E] [E] [E] [E] [E] [E] [E] [E] [E] [E] [E]  
 
 --------------------------|--------------------------|| -------|------- ||
 --------------------------|--------------------------|| -------|------- ||
 --------------------------|--------------------------||:-------|-------:||
 --------5-----5-----5-----|--------5-----5-----5--6--||:-------|-------:||
 --------------------------|--------------------------|| -------|------- ||
 --0--0-----0-----0-----0--|--0--0-----0-----0--------|| -------|------- ||

Chorus 2:
Q Q E Q E E Q Q E E E
 
 || ------------------------|------------------------ ||
 || ------------------------|------------------------ ||
 ||:------------------------|------------------------:|| 4X
 ||:---------------------0--|--L--2------------------:||
 || --3----3----2--0--------|------------------------ ||
 || ------------------------|----------0----0--3--0-- ||

Bridge:
Q Q E E E E E E Q E E E E
 
 || ------------------------|-------------------------|
 || ------------------------|-------------------------|
 ||:------------------------|-------------------------|
 ||:-------2----------------|--------2----------------|
 || ------------------0-----|-------------------0-----|
 || --0---------0--3-----0--|--L--0-------0--3-----0--|

E E Q E E E E E E Q E E Q
 
 |-------------------------|------------------------ ||
 |-------------------------|------------------------ ||
 |-------------------------|------------------------:||
 |--------2----------------|--------2----------0----:||
 |-------------------0-----|------------------------ ||
 |--L--0-------0--3-----0--|--L--0-------0--3------- ||

Interlude 2:
PM PM PM PM PM PM PM PM PM PM
[E] [E] [E] [E] [E] [E] [E] [E] [E] [E] [E] [E] [E] [E] [E] [E]  
 
 |--------------------------|--------------------------|
 |--------------------------|--------------------------|
 |--------------------------|--------------------------|
 |--------5-----5-----5-----|--------5-----5-----5-----|
 |--------------------------|--------------------------|
 |--0--0-----0-----0-----0--|--0--0-----0-----0-----0--|

PM PM PM PM PM PM PM PM PM
[E] [E] [E] [E] [E] [E] [E] [E] [E] [E] [E] [E] [E] [E] [E] [E]  
 
 |--------------------------|--------------------------|| -------|------- ||
 |--------------------------|--------------------------|| -------|------- ||
 |--------------------------|--------------------------||:-------|-------:||
 |--------5-----5-----5-----|--------5-----5-----5--6--||:-------|-------:||
 |--------------------------|--------------------------|| -------|------- ||
 |--0--0-----0-----0-----0--|--0--0-----0-----0--------|| -------|------- || 

===============
Duration Legend
 
 ---------------

W - whole
H - half
Q - quarter
E - 8th
S - 16th
T - 32nd
X - 64th
. - note dotted
|-n-| - n-tuplets

Important: The song above is NOT stored on the Chordie server. The original song is hosted at www.guitartabs.cc. Chordie works as a search engine and provides on-the-fly formatting. Chordie does not index songs against artists'/composers' will. To remove this song please click here.

Text color:
Chord color:
Chord grids: 
Font size:    
Page size: 

E
Rate #1 of 2 versions

Jango Player

Login - add to songbook

SHARE PAGE  




You need to log in to post comments