Guitar Tabs, Chords and Lyrics
Login is temporarily disabled for some users. Do not panic. Will be back in an hour or two. DO NOT REREGISTER!!


Doot-Doot  Freur

 
 -------------------------------------------------------------------------------

Doot-Doot - Freur
 
 -------------------------------------------------------------------------------

Tabbed by:Kirk Bullough
E-mail:kirkbull@gmail.com
Tuning:Standard
Intro:
C Am G G X2
 
 e||----------------|-----------------|--------------------|----------------||
 B||----------------|-----------------|--------------------|----------------||
 G||----------0-----|------------0----|--------------0-----|----------------||
 D||-----10---------|--------10-------|----------12--------|----------------||
 A||-8--------------|----7------------|--7 / 10 -----------|----------------||
 E||----------------|-----------------|--------------------|----------------||

[C] [Am] [G] [F]  
 
 e|-----------------|-----------------|--------------------|-----------------|
 B|-----------------|-----------------|--------------------|-----------------|
 G|------0--------0-|------0-------0--|-------0--------0---|------0-------0--|
 D|---10-------10---|---10------10----|----12-------12-----|---10------10----|
 A|-8--------8------|-7-------7-------|-10-------10--------|-8-------8-------|
 E|-----------------|-----------------|--------------------|-----------------|

Doot-Doot Doot-Doot Doot-Doot Doot-Doot
[Am] [G] [G] [C]  
 
 e|-----------------|-----------------|--------------------|-----------------|
 B|-----------------|-----------------|--------------------|-----------------|
 G|------0--------0-|-------0-------0-|-------0--------0---|------0-------0--|
 D|---10-------10---|----12------12---|----12-------12-----|---10------10----|
 A|-7--------7------|-10------10------|-10-------10--------|-8-------8-------|
 E|-----------------|-----------------|--------------------|-----------------|

Doot-Doot What's in a name, face on a
[Am] [G] [F] [Am]  
 
 e|-----------------|-----------------|--------------------|-----------------|
 B|-----------------|-----------------|--------------------|-----------------|
 G|------0--------0-|-------0-------0-|-------0--------0---|------0-------0--|
 D|---10-------10---|----12------12---|----10-------10-----|---10------10----|
 A|-7--------7------|-10------10------|-8---------8--------|-7-------7-------|
 E|-----------------|-----------------|--------------------|-----------------|

stage, where are you now? Memory fades you take a
[G] [G] [C] [Am]  
 
 e|-----------------|-----------------|--------------------|-----------------|
 B|-----------------|-----------------|--------------------|-----------------|
 G|-------0-------0-|-------0-------0-|-------0--------0---|------0-------0--|
 D|----12------12---|----12------12---|---10-------10------|---10------10----|
 A|-10------10------|-10------10------|-8-------8----------|-7-------7-------|
 E|-----------------|-----------------|--------------------|-----------------|

bow. Here in the dark watching the
[G] [F] [Am] [G]  
 
 e|-----------------|-----------------|--------------------|-----------------|
 B|-----------------|-----------------|--------------------|-----------------|
 G|-------0-------0-|------0--------0-|-------0--------0---|-------0-------0-|
 D|----12------12---|---10-------10---|---10-------10------|----12------12---|
 A|-10------10------|-8-------8-------|-7-------7----------|-10------10------|
 E|-----------------|-----------------|--------------------|-----------------|

screen. Look at them fall, the final scene.
( Tab from: http://www.guitartabs.cc/tabs/f/freur/doot_doot_tab.html )
[G] [Am] [C] [G]  
 
 e|-----------------|-----------------|--------------------|-----------------|
 B|-----------------|-----------------|--------------------|-----------------|
 G|-------0-------0-|-----------------|--------------------|-----------------|
 D|----12------12---|-10-10-10-10-10--|-10-10-10-10-10-----|-12-12-12-12-12--|
 A|-10------10------|8--8--8--8--8----|7--7--7--7--7-------|10-10-10-10-10---|
 E|-----------------|-----------------|--------------------|-----------------|

And we go doot doot-doot
[G] [Am] [C] [G]  
 
 e|-----------------|-----------------|--------------------|-----------------|
 B|-----------------|-----------------|--------------------|-----------------|
 G|-----------------|-----------------|--------------------|-----------------|
 D|-12-12-12-12-12--|-10-10-10-10-10--|-10-10-10-10-10-----|-12-12-12-12-12--|
 A|10-10-10-10-10---|8--8--8--8--8----|7--7--7--7--7-------|10-10-10-10-10---|
 E|-----------------|-----------------|--------------------|-----------------|

And we go doot doot-doot
[G] [C] [Am] [G]  
 
 e|-----------------|-------8--7------|--------------------|-----------------|
 B|-----------------|-----------------|-----5--6-----------|-----------------|
 G|-----------------|-------------5---|--------------7-----|-----------------|
 D|-12-12-12-12-12--|-----------------|-----------5--------|-----------------|
 A|10-10-10-10-10---|-----------------|--------------------|-----------------|
 E|-----------------|-----------------|--------------------|-----------------|

Look at them fall, flicker and fade, gone are the screams,
[F] [Am] [G] [G]  
 
 e|-----------------|-----------------|--------------------|-----------------|
 B|-----------------|-----------------|--------------------|-----------------|
 G|-----------------|-----------------|--------------------|-----------------|
 D|-----------------|-----------------|--------------------|-----------------|
 A|-----------------|-----------------|--------------------|-----------------|
 E|-----------------|-----------------|--------------------|-----------------|

I put them to bed, now they are dreams. and we go
[Am] [C] [G] [G]  
 
 e|-----------------|-----------------|--------------------|-----------------|
 B|-----------------|-----------------|--------------------|-----------------|
 G|-----------------|-----------------|--------------------|-----------------|
 D|-----------------|-----------------|--------------------|-----------------|
 A|-----------------|-----------------|--------------------|-----------------|
 E|-----------------|-----------------|--------------------|-----------------|

doot doot-doot and we go
[Am] [C] [G] [G]  
 
 e|-----------------|-----------------|--------------------|-----------------|
 B|-----------------|-----------------|--------------------|-----------------|
 G|-----------------|-----------------|--------------------|-----------------|
 D|-----------------|-----------------|--------------------|-----------------|
 A|-----------------|-----------------|--------------------|-----------------|
 E|-----------------|-----------------|--------------------|-----------------|

doot doot-doot
Exitlude:
[C] [Am] [G] [F]  
 
 e||-0--------------|-1------------0--|--------------------|-----------------|
 B||-------------3--|-----------------|--0-----------------|--3------------1-|
 G||----------------|-----------------|--------------------|-----------------|
 D||----------------|-----------------|--------------------|-----------------|
 A||-3--------------|-0---------------|--------------------|-----------------|
 E||----------------|-----------------|--3-----------------|--1--------------|

Am G G X3
 
 e|--0----------1---|--3--------------|-------------------||
 B|-----------------|-----------------|-------------------||
 G|-----------------|-----------------|-------------------||
 D|-----------------|-----------------|-------------------||
 A|--0--------------|-----------------|-------------------||
 E|-----------------|--3--------------|-------------------||

************************************
| / slide up
| \ slide down
| h hammer-on
| p pull-off
| ~ vibrato
| + harmonic
| x Mute note
| b Bend
| pb Pre-bend
| br Bend release
| pbr Pre-bend release
| brb Bend release bend
************************************
http://en.wikipedia.org/wiki/Freur
Freur were a new wave band in the 80's. They later became Underworld.

Important: The song above is NOT stored on the Chordie server. The original song is hosted at www.guitartabs.cc. Chordie works as a search engine and provides on-the-fly formatting. Chordie does not index songs against artists'/composers' will. To remove this song please click here.

Text color:
Chord color:
Chord grids: 
Font size:    
Page size: 

Am C F G
Rate #1 of 2 versions

Jango Player

Login - add to songbook

SHARE PAGE  



You need to log in to post comments