Guitar Tabs, Chords and Lyrics
Server problems seems to be fixed. Chordie has been experiencing problems with songs disappearing. These issues now seems to be fixed, but still verifying the fix. If you find anything strange, please email admin@chordie.com.


Could Have Been  Frio

Title: Could have been
artist: fRio
tabbed by: kuLot kK!
Use this chords:
[G] [C] [Em] [D] [Am7] [Bm7] 
 
 E|---3------|---3-----|---3-----|---3-----|---0-----|---2-----|
 B|---3------|---3-----|---3-----|---3-----|---1-----|---3-----|
 G|---0------|---0-----|---0-----|---2-----|---0-----|---0-----|
 D|---0------|---2-----|---2-----|---0-----|---2-----|---0-----|
 A|---2------|---3-----|---2-----|---------|---0-----|---2-----|
 E|---3------|---x-----|---0-----|---------|---------|---------|

Intro: G C Em D 2x
[G] If only I could t[C]urn back the time wh[Em]en
All the words we say [D]we can make it rhyme I
[G] Just can't get you o[C]ff my mind I[Em] can
Only smile [D]when you where mine
I've been [Am7]waiting for y[Bm7]ou all night long[C]
gotta lis[Am7]ten to your v[Bm7]oice along the pho[C]ne[D]
[G] could have b[D]een a perfect l[Em]ove
I'm still try[C]in'
[G] I know your l[D]ost your faith in [Em]me
now i'm cry[C]in'
[G] I know i've b[D]een such a f[Em]ool
( Tab from: http://www.guitartabs.cc/tabs/f/frio/could_have_been_crd_ver_3.html )
i've been blin[C]ded
can we j[G]ust get back t[D]o where we sta[Em]rted [C]
 
 E|--3-3--|--3-3--|
 B|--3--3-|--3--3-|
 G|--0----|--0----|
 D|--2----|--2----|
 A|--2----|--3----|
 E|-------|--0----|

coz' i [G]miss your grips and i [D]miss the way you ki[Em]ss me[C]
 
 E|--3-3--|--3-3--|
 B|--3--3-|--3--3-|
 G|--0----|--0----|
 D|--2----|--2----|
 A|--2----|--3----|
 E|-------|--0----| 

[G] I know it hard too, i[C]d giving you down
[Em]begun on my knees Te[D]ll me what should i do
[G] I just can't get you [C]off my mind I[Em] can
only smile [D]when you are mine
(refrain)
(Chorus)
ADlib:
 
 E|--1~s3~--3~s5~--5~s6~--6~s8~--8-6-5-3-1~---3h5h3-1~-| <-ung 1 pull
 B|----------------------------------------------------| s 2nd tym.
 G|----------------------------------------------------| 2x to
 D|---------------------------------------------------=|
 A|----------------------------------------------------|
 E|----------------------------------------------------|

(chorus)
heheheh almost done... tnx... i dedicate dz song to ms. jean key cabanado.
god bless.. cnxa 1st tym q to gwa tab. pti bginer p lng me sa gtara.
cnxa

Important: The song above is NOT stored on the Chordie server. The original song is hosted at www.guitartabs.cc. Chordie works as a search engine and provides on-the-fly formatting. Chordie does not index songs against artists'/composers' will. To remove this song please click here.

Text color:
Chord color:
Chord grids: 
Font size:    
Page size: 

Am7 Bm7 C D Em G
Rate #2 of 4 versions

Login - add to songbook

SHARE PAGE  




You need to log in to post comments