Guitar Tabs, Chords and Lyrics
Login is temporarily disabled for some users. Do not panic. Will be back in an hour or two. DO NOT REREGISTER!!


Cherry Kiss  From Autumn to Ashes

Cherry Kiss
From Autumn To Ashes
[E] [E] [E] [E] [E] [E] [E] [E] [E] [E] [E] [E] [E] [E] [E] [E]  
 
 E||------------------------------|----------------------------|
 B||------------------------------|----------------------------|
 G||*-----------------------------|----------------------------|
 D||*-----------------------------|----------------------------|
 A||---10--9--7--10--9--7--10--9--|--7--10--9--7--10--9--7--7--|
 E||------------------------------|----------------------------|

[E] [E] [E] [E] [E] [E] [E] [E] [E] [E] [E] [E] [E] [E] [E] [E]  
 
 --------------------------|--------------------------|
 --------------------------|--------------------------|
 --------------------------|--------------------------|
 --------------------------|--------------------------|
 --9--7--5--9--7--5--9--7--|--5--9--7--5--9--7--5--5--|
 --------------------------|--------------------------|

[E] [E] [E] [E] [E] [E] [E] [E] [E] [E] [E] [E] [E] [E] [E] [E]  
 
 --------------------------|--------------------------|
 --------------------------|--------------------------|
 --------------------------|--------------------------|
 --------------------------|--------------------------|
 --7--5--3--7--5--3--7--5--|--3--7--5--3--7--5--3--3--|
 --------------------------|--------------------------|

[E] [E] [E] [E] [E] [E] [E] [E] [E] [E] [E] [E] [E] [E] [E] [E]  
 
 --------------------------|---------------------------||
 --------------------------|---------------------------||
 --------------------------|--------------------------*||
 --------------------------|--------------------------*||
 --2--2--2--2--2--2--2--2--|--2--2--2--2--2--2--2--2---||
 --0--0--0--0--0--0--0--0--|--0--0--0--0--0--0--0--0---||

S S S S S S S S S S S S S S S S S S S S S S S S E E Q
 
 -----------------------------------|---------------------------------------|
 -----------------------------------|---------------------------------------|
 *----------------------------------|---------------------------------------|
 *----------------------------------|--------------------------12--11--9----|
 ---7-7-7-7-7-7-7-7-9-9-9-9-9-9-9-9-|--10-10-10-10-10-10-10-10-10---9--7----|
 -----------------------------------|---------------------------------------|

S S S S S S S S S S S S S S S S S S S S S S S S E E Q
 
 ----------------------------------|------------------------------|
 ----------------------------------|------------------------------|
 ----------------------------------|------------------------------|
 ----------------------------------|------------------11--9--7----|
 --5-5-5-5-5-5-5-5-7-7-7-7-7-7-7-7-|--9-9-9-9-9-9-9-9--9--7--5----|
 ----------------------------------|------------------------------|

S S S S S S S S S S S S S S S S S S S S S S S S E E Q
 
 ----------------------------------|-----------------------------|
 ----------------------------------|-----------------------------|
 ----------------------------------|-----------------------------|
 ----------------------------------|------------------9--7--5----|
 --3-3-3-3-3-3-3-3-5-5-5-5-5-5-5-5-|--7-7-7-7-7-7-7-7-7--5--3----|
 ----------------------------------|-----------------------------|

E E E E Q Q E E E E Q Q 4x W
 
 ------------------------|-------------------------||-------------------|
 ------------------------|-------------------------||-------------------|
 ------------------------|------------------------*||-------------------|
 ------------------------|------------------------*||-------------------|
 --2--2--2--2--x----x----|--2--2--2--2--x----x-----||--2----------------|
 --0--0--0--0--x----x----|--0--0--0--0--x----x-----||--0----------------|

[E] [E] [E] [E] [E] [E] [E] [E] [E] [E] [E] [E] [E] [E] [E] [E]  
 
 -----------------------------|----------------------------|
 -----------------------------|----------------------------|
 -----------------------------|-------------0--------------|
 --2h--3p--2p--0--------------|--2h--3p--2-----------------|
 -----------------2--2--2--2--|----------------2--2--2--2--|
 -----------------0--0--0--0--|----------------0--0--0--0--|

[E] [E] [E] [E] [E] [E] [E] [E] [E] [E] [E] [E] [E] [E] [E] [E]  
 
 -----------------------------|----------------------------|
 -----------------------------|----------------------------|
 -----------------------------|-------------0--------------|
 --2h--3p--2p--0--------------|--2h--3p--2-----------------|
 -----------------2--2--2--2--|----------------2--2--2--2--|
 -----------------0--0--0--0--|----------------0--0--0--0--|

S S S S S S S S S S S S S S S S 8x E E E E E E E E
 
 |------------------------------------||------------0--------------|
 |------------------------------------||---------0-----0-----------|
 |*----------------------------------*||*--------------------------|
 |*--2-3-2-0-2-3-2-0-2-3-2-0---------*||*-----5-----------5-----7--|
 |---------------------------3-3-3-3--||---7-----------------9-----|
 |------------------------------------||---------------------------|

E E E E E E E E E E E E E E E E 4x W
 
 -----0-----------------3--|-----------------3---------||---------------------|
 --0-----0-----------3-----|--3-----------3-----3------||---------------------|
 --------------------------|--------------------------*||*--4~----------------|
 -----------7-----0--------|-----0-----0-----------0--*||*--------------------|
 --------------3-----------|--------3------------------||---------------------|
 --------------------------|---------------------------||---------------------|

W W W 4x
 
 --------------------|--------------------|---------------------||
 --------------------|--------------------|---------------------||
 --4~----------------|--4~----------------|--4~----------------*||
 --------------------|--------------------|--------------------*||
 --------------------|--------------------|---------------------||
 --------------------|--------------------|---------------------||

S S S S S S S S S S S S S S S S S S S S S S S S E E Q
 
 ----------------------------------|---------------------------------------|
 ----------------------------------|---------------------------------------|
 ----------------------------------|---------------------------------------|
 ----------------------------------|--------------------------12--11--9----|
 --7-7-7-7-7-7-7-7-9-9-9-9-9-9-9-9-|--10-10-10-10-10-10-10-10-10---9--7----|
 ----------------------------------|---------------------------------------|

S S S S S S S S S S S S S S S S S S S S S S S S E E Q
 
 ----------------------------------|------------------------------|
 ----------------------------------|------------------------------|
 ----------------------------------|------------------------------|
 ----------------------------------|------------------11--9--7----|
 --5-5-5-5-5-5-5-5-7-7-7-7-7-7-7-7-|--9-9-9-9-9-9-9-9--9--7--5----|
 ----------------------------------|------------------------------|

S S S S S S S S S S S S S S S S S S S S S S S S E E Q
 
 ----------------------------------|-----------------------------|
 ----------------------------------|-----------------------------|
 ----------------------------------|-----------------------------|
 ----------------------------------|------------------9--7--5----|
 --3-3-3-3-3-3-3-3-5-5-5-5-5-5-5-5-|--7-7-7-7-7-7-7-7-7--5--3----|
 ----------------------------------|-----------------------------|

E E E E Q Q E E E E Q Q E E E E E E E E
 
 ------------------------|------------------------|-----------------------------|
 ------------------------|------------------------|-----------------------------|
 ------------------------|------------------------|-----------------------------|
 ------------------------|------------------------|-----------------------------|
 --2--2--2--2--x----x----|--2--2--2--2--x----x----|--10--9--7--10--9--7--10--9--|
 --0--0--0--0--x----x----|--0--0--0--0--x----x----|-----------------------------|

[E] [E] [E] [E] [E] [E] [E] [E] [E] [E] [E] [E] [E] [E] [E] [E]  
 
 ----------------------------|--------------------------|
 ----------------------------|--------------------------|
 ----------------------------|--------------------------|
 ----------------------------|--------------------------|
 --7--10--9--7--10--9--7--7--|--9--7--5--9--7--5--9--7--|
 ----------------------------|--------------------------|

[E] [E] [E] [E] [E] [E] [E] [E] [E] [E] [E] [E] [E] [E] [E] [E]  
 
 --------------------------|--------------------------|
 --------------------------|--------------------------|
 --------------------------|--------------------------|
 --------------------------|--------------------------|
 --5--9--7--5--9--7--5--5--|--7--5--3--7--5--3--7--5--|
 --------------------------|--------------------------|

[E] [E] [E] [E] [E] [E] [E] [E] [E] [E] [E] [E] [E] [E] [E] [E]  
 
 --------------------------|--------------------------|
 --------------------------|--------------------------|
 --------------------------|--------------------------|
 --------------------------|--------------------------|
 --3--7--5--3--7--5--3--3--|--2--2--2--2--2--2--2--2--|
 --------------------------|--0--0--0--0--0--0--0--0--|

E E E E E E E E W Q Q Q Q
 
 --------------------------||--------------------|----------------------|
 --------------------------||--------------------|----------------------|
 --------------------------||*--4----------------|--4----5----7----5----|
 --------------------------||*-------------------|----------------------|
 --2--2--2--2--2--2--2--2--||--------------------|----------------------|
 --0--0--0--0--0--0--0--0--||--------------------|----------------------|

W W H H
 
 -------------------|-------------------|--------------------|
 --5----------------|--3----------------|--7--------8--------|
 -------------------|-------------------|--------------------|
 -------------------|-------------------|--------------------|
 -------------------|-------------------|--------------------|
 -------------------|-------------------|--------------------|

W E E E E E E E E E E E E E E E E
 
 -------------------|--------------------------|---------------------------||
 --7----------------|--------------------------|---------------------------||
 -------------------|--------------------------|--------------------------*||
 -------------------|--------------------------|--------------------------*||
 -------------------|--2--2--2--2--2--2--2--2--|--2--2--2--2--2--2--2--2---||
 -------------------|--0--0--0--0--0--0--0--0--|--0--0--0--0--0--0--0--0---||

Duration Legend
 
 ---------------

W - whole
H - half
Q - quarter
E - 8th
S - 16th
T - 32nd
X - 64th
. - note dotted
|-n-| - n-tuplets
Tablature Legend
 
 ----------------

L - tied note
x - dead note
g - grace note
(n) - ghost note
> - accentuded note
NH - natural harmonic
AH - artificial harmonic
TH - tapped harmonic
SH - semi harmonic
PH - pitch harmonic
h - hammer on
p - pull off
b - bend
br - bendRelease
pb - preBend
pbr - preBendRelease
brb - bendReleaseBend
\n/ - tremolo bar dip
\n - tremolo bar dive
-/n - tremolo bar Release up
/n\ - tremolo bar inverted dip
/n - tremolo bar return
-\n - tremolo bar Release down
S - shift slide
s - legato slide
/ - slide into from below or out of upwards
\ - slide into from above or out of downwards
~ - vibrato
W - wide vibrato
tr - trill
TP - tremolo picking
T - tapping
S - slap
P - pop
< - fade in
^ - brush up
v - brush down

Important: The song above is NOT stored on the Chordie server. The original song is hosted at www.guitartabs.cc. Chordie works as a search engine and provides on-the-fly formatting. Chordie does not index songs against artists'/composers' will. To remove this song please click here.

Text color:
Chord color:
Chord grids: 
Font size:    
Page size: 

E
Rate #1 of 1 versions

Jango Player

Login - add to songbook

SHARE PAGE  




You need to log in to post comments