Guitar Tabs, Chords and Lyrics
Login is temporarily disabled for some users. Do not panic. Will be back in an hour or two. DO NOT REREGISTER!!


Deth Kult Social Club  From Autumn to Ashes

DETH KULT SOCIAL CLUB
As recorded by From Autumn To Ashes
(From the 2007 EP THESE SPEAKERS DON'T ALWAYS TELL THE TRUTH)
Words and Music by From Autumn To Ashes
Transcribed by jonathan rose
Gtr I (D A D G B E) - 'Gtr 1'
Gtr II (D A D G B E) - 'Gtr 2'
Gtr III (D A D G B E) - 'Gtr 3'
Gtr IV (D A D G B E) - 'Pickscrape'
Intro
Hardcore Q=165
[D5] [DsusD5] [DsusD5] [DsusD5] [Dsus2] 
[4/4] Gtrs I, II
PM| PM| PM|
E E E E H W E E E E E E E E E E E E E E E E 4x
 
 ||---------------|----------|-----------------|-------------------||
 ||o--------------|----------|-----------------|------------------o||
 ||---------------|----------|-9-9-----9-9-----|-9-9-----9-9-9-9---||
 ||--0-0-0-0------|----------|-7-7-----7-7-----|-7-7-----7-7-7-7---||
 ||o-0-0-0-0------|----------|-5-5-0-0-5-5-0-0-|-5-5-0-0-5-5-5-5--o||
 ||--0-0-0-0------|----------|-----0-0-----0-0-|-----0-0-----------||

Pre-Chorus
[Bb5]Gtr I
[E] [E] [E] [E] [E] [E] [E] [E] [E] [E] [E] [E] [E] [E] [E] [E]  
 
 |-13-13-13-12-12-12-------|-13-13-13-12-12-12-15-15-|
 |-------------------13-13-|-------------------------|
 |-------------------------|-------------------------|
 |-------------------------|-------------------------|
 |-------------------------|-------------------------|
 |-------------------------|-------------------------|

|
| Gtr II
| E E E E E E E E E E E E E E E E
 
 |-------------------------|-------------------------|
 |-------------------------|-------------------------|
 |--3--3--3--3--3--3--3--3-|--3--3--3--3--3--3--3--3-|
 |--3--3--3--3--3--3--3--3-|--3--3--3--3--3--3--3--3-|
 |--1--1--1--1--1--1--1--1-|--1--1--1--1--1--1--1--1-|
 |-------------------------|-------------------------|

[A5] E E E Q E E E +E E E E E E Q
 
 |------------------------|--------------------------|
 |-13-11----11------------|--------------------------|
 |-------14------14-12-14-|-(14)-12----------12-14---|
 |------------------------|---------15-14-15---------|
 |------------------------|--------------------------|
 |------------------------|--------------------------|

|
| E E E E E E E E E E E E E E E E
 
 |------------------------|--------------------------|
 |------------------------|--------------------------|
 |--2--2--2--2-2--2--2--2-|---2---2--2--2--2--2--2-2-|
 |--2--2--2--2-2--2--2--2-|---2---2--2--2--2--2--2-2-|
 |--0--0--0--0-0--0--0--0-|---0---0--0--0--0--0--0-0-|
 |------------------------|--------------------------|

[Bb5]  
[E] [E] [E] [E] [E] [E] [E] [E] [E] [E] [E] [E] [E] [E] [E] [E]  
 
 |-13-13-13-12-12-12-------|-13-13-13-12-12-12-15-15-|
 |-------------------13-13-|-------------------------|
 |-------------------------|-------------------------|
 |-------------------------|-------------------------|
 |-------------------------|-------------------------|
 |-------------------------|-------------------------|

|
| E E E E E E E E E E E E E E E E
 
 |-------------------------|-------------------------|
 |-------------------------|-------------------------|
 |--3--3--3--3--3--3--3--3-|--3--3--3--3--3--3--3--3-|
 |--3--3--3--3--3--3--3--3-|--3--3--3--3--3--3--3--3-|
 |--1--1--1--1--1--1--1--1-|--1--1--1--1--1--1--1--1-|
 |-------------------------|-------------------------|

[C5] E E E Q E E E [Db5] +E E E E E E Q
 
 |------------------------|------------------12-12---||
 |-13-11----11---13-11-13-|-(13)-15-13-11-15---------||
 |-------14---------------|--------------------------||
 |------------------------|--------------------------||
 |------------------------|--------------------------||
 |------------------------|--------------------------||

|
| E E E E E E E E E E E E E E E E
 
 |------------------------|--------------------------||
 |------------------------|--------------------------||
 |--5--5--5--5-5--5--5--5-|---6---6--6--6--6--6--6-6-||
 |--5--5--5--5-5--5--5--5-|---6---6--6--6--6--6--6-6-||
 |--3--3--3--3-3--3--3--3-|---4---4--4--4--4--4--4-4-||
 |------------------------|--------------------------||

Chorus
[D5] Q Q. [BbA5Bb5]E E E Q E E [C5] Q E E
 
 ||------------------|---------------------|
 ||o-----------------|---------------------|
 ||------------------|-10--10-10-12--12-12-|
 ||--12\--0----------|---------------------|
 ||o-12\--0----8-7-8-|--8---8--8-10--10-10-|
 ||--12\--0----8-7-8-|---------------------|

|
| Q Q. E E E Q E E Q E E
 
 ||------------------|---------------------|
 ||o-----------------|---------------------|
 ||------------------|---------------------|
 ||--12\--0----------|--8---8--8-10--10-10-|
 ||o-12\--0----8-7-8-|--8---8--8-10--10-10-|
 ||--12\--0----8-7-8-|--8---8--8-10--10-10-|

[D5] Q Q. [BbA5Bb5]E E E Q E E [C5] Q E E
 
 |-----------------|-----------------------||
 |-----------------|----------------------o||
 |-----------------|-10--10-10-12--12-12---||
 |-12\--0----------|-----------------------||
 |-12\--0----8-7-8-|--8---8--8-10--10-10--o||
 |-12\--0----8-7-8-|-----------------------||

|
| Q Q. E E E Q E E Q E E
 
 |-----------------|-----------------------||
 |-----------------|----------------------o||
 |-----------------|-----------------------||
 |-12\--0----------|--8---8--8-10--10-10---||
 |-12\--0----8-7-8-|--8---8--8-10--10-10--o||
 |-12\--0----8-7-8-|--8---8--8-10--10-10---||

Verse
[D5]Gtrs I, II[DsusD5] [DsusD5] [DsusD5] [Dsus2]
PM| PM| PM|
E E E E H W E E E E E E E E E E E E E E E E 3x
 
 ||---------------|----------|-----------------|-------------------||
 ||o--------------|----------|-----------------|------------------o||
 ||---------------|----------|-9-9-----9-9-----|-9-9-----9-9-9-9---||
 ||--0-0-0-0------|----------|-7-7-----7-7-----|-7-7-----7-7-7-7---||
 ||o-0-0-0-0------|----------|-5-5-0-0-5-5-0-0-|-5-5-0-0-5-5-5-5--o||
 ||--0-0-0-0------|----------|-----0-0-----0-0-|-----0-0-----------||

D5 N.C. D5 N.C. D5 N.C. D5 N.C. D5
Gtr I
PM| PM| PM|
E E E E H W E E E E E E E E E E E E E E Q
 
 |--------------|----------|---------------------|----------------------||
 |--------------|----------|---------------------|----------------------||
 |--------------|----------|-14-14-----15-15-----|-17-17-----21-21------||
 |-0-0-0-0------|----------|---------------------|----------------------||
 |-0-0-0-0------|----------|-12-12-0-0-13-13-0-0-|-15-15-0-0-19-19------||
 |-0-0-0-0------|----------|-------0-0-------0-0-|-------0-0-------12\--||

|
| Gtr II
| PM| PM| PM|
| E E E E H W E E E E E E E E E E E E E E Q
 
 |--------------|----------|---------------------|----------------------||
 |--------------|----------|---------------------|----------------------||
 |--------------|----------|-10-10-----12-12-----|-14-14-----17-17------||
 |-0-0-0-0------|----------|---------------------|----------------------||
 |-0-0-0-0------|----------|--8--8-0-0-10-10-0-0-|-12-12-0-0-15-15------||
 |-0-0-0-0------|----------|-------0-0-------0-0-|-------0-0-------12\--||

Pre-Chorus
[Bb5]  
[E] [E] [E] [E] [E] [E] [E] [E] [E] [E] [E] [E] [E] [E] [E] [E]  
 
 |-13-13-13-12-12-12-------|-13-13-13-12-12-12-15-15-|
 |-------------------13-13-|-------------------------|
 |-------------------------|-------------------------|
 |-------------------------|-------------------------|
 |-------------------------|-------------------------|
 |-------------------------|-------------------------|

|
| E E E E E E E E E E E E E E E E
 
 |-------------------------|-------------------------|
 |-------------------------|-------------------------|
 |--3--3--3--3--3--3--3--3-|--3--3--3--3--3--3--3--3-|
 |--3--3--3--3--3--3--3--3-|--3--3--3--3--3--3--3--3-|
 |--1--1--1--1--1--1--1--1-|--1--1--1--1--1--1--1--1-|
 |-------------------------|-------------------------|

[A5] E E E Q E E E +E E E E E E Q
 
 |------------------------|--------------------------|
 |-13-11----11------------|--------------------------|
 |-------14------14-12-14-|-(14)-12----------12-14---|
 |------------------------|---------15-14-15---------|
 |------------------------|--------------------------|
 |------------------------|--------------------------|

|
| E E E E E E E E E E E E E E E E
 
 |------------------------|--------------------------|
 |------------------------|--------------------------|
 |--2--2--2--2-2--2--2--2-|---2---2--2--2--2--2--2-2-|
 |--2--2--2--2-2--2--2--2-|---2---2--2--2--2--2--2-2-|
 |--0--0--0--0-0--0--0--0-|---0---0--0--0--0--0--0-0-|
 |------------------------|--------------------------|

[Bb5]  
[E] [E] [E] [E] [E] [E] [E] [E] [E] [E] [E] [E] [E] [E] [E] [E]  
 
 |-13-13-13-12-12-12-------|-13-13-13-12-12-12-15-15-|
 |-------------------13-13-|-------------------------|
 |-------------------------|-------------------------|
 |-------------------------|-------------------------|
 |-------------------------|-------------------------|
 |-------------------------|-------------------------|

|
| E E E E E E E E E E E E E E E E
 
 |-------------------------|-------------------------|
 |-------------------------|-------------------------|
 |--3--3--3--3--3--3--3--3-|--3--3--3--3--3--3--3--3-|
 |--3--3--3--3--3--3--3--3-|--3--3--3--3--3--3--3--3-|
 |--1--1--1--1--1--1--1--1-|--1--1--1--1--1--1--1--1-|
 |-------------------------|-------------------------|

[C5] E E E Q E E E [Db5] +E E E E E E Q
 
 |------------------------|------------------12-12---|
 |-13-11----11---13-11-13-|-(13)-15-13-11-15---------|
 |-------14---------------|--------------------------|
 |------------------------|--------------------------|
 |------------------------|--------------------------|
 |------------------------|--------------------------|

|
| E E E E E E E E E E E E E E E E
 
 |------------------------|--------------------------|
 |------------------------|--------------------------|
 |--5--5--5--5-5--5--5--5-|---6---6--6--6--6--6--6-6-|
 |--5--5--5--5-5--5--5--5-|---6---6--6--6--6--6--6-6-|
 |--3--3--3--3-3--3--3--3-|---4---4--4--4--4--4--4-4-|
 |------------------------|--------------------------|

Chorus
[D5] Q Q. [BbA5Bb5]E E E Q E E [C5] Q E E
 
 ||------------------|---------------------|
 ||o-----------------|---------------------|
 ||------------------|-10--10-10-12--12-12-|
 ||--12\--0----------|---------------------|
 ||o-12\--0----8-7-8-|--8---8--8-10--10-10-|
 ||--12\--0----8-7-8-|---------------------|

|
| Q Q. E E E Q E E Q E E
 
 ||------------------|---------------------|
 ||o-----------------|---------------------|
 ||------------------|---------------------|
 ||--12\--0----------|--8---8--8-10--10-10-|
 ||o-12\--0----8-7-8-|--8---8--8-10--10-10-|
 ||--12\--0----8-7-8-|--8---8--8-10--10-10-|

[D5] Q Q. [BbA5Bb5]E E E Q E E [C5] Q E E
 
 |-----------------|-----------------------||
 |-----------------|----------------------o||
 |-----------------|-10--10-10-12--12-12---||
 |-12\--0----------|-----------------------||
 |-12\--0----8-7-8-|--8---8--8-10--10-10--o||
 |-12\--0----8-7-8-|-----------------------||

|
| Q Q. E E E Q E E Q E E
 
 |-----------------|-----------------------||
 |-----------------|----------------------o||
 |-----------------|-----------------------||
 |-12\--0----------|--8---8--8-10--10-10---||
 |-12\--0----8-7-8-|--8---8--8-10--10-10--o||
 |-12\--0----8-7-8-|--8---8--8-10--10-10---||

Bridge
Q=150
[D5]Gtrs I, II
E E E E E Q. W W +W 3x
 
 |----------------|----------|----------||----------||
 |----------------|----------|----------||o--------o||
 |----------------|----------|----------||----------||
 |-0-0-0-0-0------|----------|-0--------||--(0)-----||
 |-0-0-0-0-0------|----------|-0--------||o-(0)----o||
 |-0-0-0-0-0------|----------|-0--------||--(0)-----||

[D5]Gtr I[C5D5] [Eb5] [D5] [C5D5BbD5]
 
 PM--------------| PM| PM PM--------------| PM| PM

[E] [E] [E] [E] [E] [E] [E] [E] [E] [E] [E] [E] [E] [E] [E] [E] [E] [E] [E] [E] [E] [E] [E] [E] [E] [E] [E] [E] [E] [E] [E] [E]  
 
 |-----------------|-------------------|-------------------|-------------------|
 |-----------------|-------------------|-------------------|-------------------|
 |-----------------|-------------------|-------------------|-------------------|
 |-7---------------|-----7-----5---7-8-|--7----------------|-----7-----5---3---|
 |-5-0-0-0-0-0-0-0-|--0--5-0-0-3-0-5-6-|--5--0-0-0-0-0-0-0-|--0--5-0-0-3-0-1-0-|
 |---0-0-0-0-0-0-0-|--0----0-0---0-----|-----0-0-0-0-0-0-0-|--0----0-0---0---0-|

|
| Gtr II
| W +W +W +W
 
 |-----------------|-------------------|-------------------|-------------------|
 |-----------------|-------------------|-------------------|-------------------|
 |-----------------|-------------------|-------------------|-------------------|
 |-0---------------|-(0)---------------|-(0)---------------|-(0)---------------|
 |-0---------------|-(0)---------------|-(0)---------------|-(0)---------------|
 |-0---------------|-(0)---------------|-(0)---------------|-(0)---------------|

[FsBb5] [FsBb5] [F] [BbF] [FsusEsA54]  
 
 PM--------------| PM| PM

[E] [E] [E] [E] [E] [E] [E] [E] [E] [E] [E] [E] [E] [E] [E] [E]  
 
 |-----------------|-------------------|
 |-----------------|-------------------|
 |-----------------|-------------------|
 |-8---------------|-----8-----7---7-8-|
 |-8-8-8-8-8-8-8-8-|--8--8-8-8-8-8-8-8-|
 |---8-8-8-8-8-8-8-|--8----8-8---8-----|

|
| W +W
 
 |-----------------|-------------------|
 |-----------------|-------------------|
 |-----------------|-------------------|
 |-8---------------|-(8)---------------|
 |-8---------------|-(8)---------------|
 |-8---------------|-(8)---------------|

[EsusA5] [Em] [A5] [Em] [Esus4]  
 
 PM--------------| PM--| PM

[E] [E] [E] [E] [E] [E] [E] [E] [E] [E] [E] [E] [E] [E] [E] [E]  
 
 |-----------------|-----------------------------------|
 |-----------------|-----------------------------------|
 |-----------------|-----------------------------------|
 |-7---------------|-----7-----------5-------5---7-----|
 |-7-7-7-7-7-7-7-7-|-7---7---7---7---7---7---7---7-----|
 |---7-7-7-7-7-7-7-|-7-------7---7-------7-------------|

|
| Gtr IV
| TPTPTPTPTPTPTPTPTPTPTPTPTPTPTPTP
| W S S S S S S S S S S S S S S S S
 
 |-----------------|-----------------------------------|
 |-----------------|-----------------------------------|
 |-----------------|-----------------------------------|
 |-7---------------|-----------------------------------|
 |-7---------------|-xSxSxSxSxSxSxSxSxSxSxSxSxSxSxSx\--|
 |-7---------------|-xSxSxSxSxSxSxSxSxSxSxSxSxSxSxSx\--|

Mosh
[D5]Gtrs I, II[C5D5] [Eb5] [D5] [C5D5BbD5]
 
 PM--------------| PM| PM PM--------------| PM| PM

[E] [E] [E] [E] [E] [E] [E] [E] [E] [E] [E] [E] [E] [E] [E] [E] [E] [E] [E] [E] [E] [E] [E] [E] [E] [E] [E] [E] [E] [E] [E] [E]  
 
 ||------------------|-----------------|-----------------|------------------|
 ||o-----------------|-----------------|-----------------|------------------|
 ||------------------|-----------------|-----------------|------------------|
 ||--7---------------|---7-----5---7-8-|-7---------------|---7-----5---3----|
 ||o-5-0-0-0-0-0-0-0-|-0-5-0-0-3-0-5-6-|-5-0-0-0-0-0-0-0-|-0-5-0-0-3-0-1-0--|
 ||----0-0-0-0-0-0-0-|-0---0-0---0-----|---0-0-0-0-0-0-0-|-0---0-0---0---0--|

[EsFsBb5] [FsBb5] [F] [BbF] [FsusDsEsA54] [EsA54] [EmA5EmEsus4]  
 
 PM------------| PM| PM PM------------| PM| PM

[E] [E] [E] [E] [E] [E] [E] [E] [E] [E] [E] [E] [E] [E] [E] [E] [E] [E] [E] [E] [E] [E] [E] [E] [E] [E] [E] [E] [E] [E] [E] [E]  
 
 |-----------------|-----------------|-----------------|------------------||
 |-----------------|-----------------|-----------------|-----------------o||
 |-----------------|-----------------|-----------------|------------------||
 |-7-8-------------|---8-----7---7-8-|-5-7-------------|---7-----5---5-7--||
 |-7-8-8-8-8-8-8-8-|-8-8-8-8-8-8-8-8-|-5-7-7-7-7-7-7-7-|-7-7-7-7-7-7-7-7-o||
 |-----8-8-8-8-8-8-|-8---8-8---8-----|-----7-7-7-7-7-7-|-7---7-7---7------||

H=H
[Bb5] <[C5] [Db5]
 
 PM----------|

[E] [E] [E] [E] [E] [E] [E] [E] [E] [E] [E] [E] [E] [E] [E] [E] [E] [E] [E] [E] [E] [E] [E] [E] [B] [B]  
 
 |-----------------|-----------------|-------------------------|-------------||
 |-----------------|-----------------|-------------------------|-------------||
 |-----------------|-----------------|-------------------------|-------------||
 |-8---------------|-8-8-8-8-8-8-8-8-|-10-10-10-10-10-10-10-10-|-11\---------||
 |-8-8-8-8-8-8-8-8-|-8-8-8-8-8-8-8-8-|-10-10-10-10-10-10-10-10-|-11\---------||
 |-8-8-8-8-8-8-8-8-|-8-8-8-8-8-8-8-8-|-10-10-10-10-10-10-10-10-|-11\---------||

Chorus
Q=165
[D5]Gtr I[BbA5Bb5] [C5]
Q Q. E E E Q E E Q E E
 
 ||------------------|---------------------|
 ||o-----------------|---------------------|
 ||------------------|-10--10-10-12--12-12-|
 ||--12\--0----------|---------------------|
 ||o-12\--0----8-7-8-|--8---8--8-10--10-10-|
 ||--12\--0----8-7-8-|---------------------|

|
| Gtr II
| Q Q. E E E Q E E Q E E
 
 ||------------------|---------------------|
 ||o-----------------|---------------------|
 ||------------------|---------------------|
 ||--12\--0----------|--8---8--8-10--10-10-|
 ||o-12\--0----8-7-8-|--8---8--8-10--10-10-|
 ||--12\--0----8-7-8-|--8---8--8-10--10-10-|

[D5] Q Q. [BbA5Bb5]E E E Q E E [C5] Q E E
 
 |-----------------|-----------------------||
 |-----------------|----------------------o||
 |-----------------|-10--10-10-12--12-12---||
 |-12\--0----------|-----------------------||
 |-12\--0----8-7-8-|--8---8--8-10--10-10--o||
 |-12\--0----8-7-8-|-----------------------||

|
| Q Q. E E E Q E E Q E E
 
 |-----------------|-----------------------||
 |-----------------|----------------------o||
 |-----------------|-----------------------||
 |-12\--0----------|--8---8--8-10--10-10---||
 |-12\--0----8-7-8-|--8---8--8-10--10-10--o||
 |-12\--0----8-7-8-|--8---8--8-10--10-10---||

Outro
[D5]Gtr III[Bb5A5] [Bb5] [C5]
E E E Q E E E +E E E E E E Q
 
 |-------------------------|---------------------------|
 |-13--11-----11-----------|---------------------------|
 |--------14------14-12-14-|-(14)-12----------12-14----|
 |-------------------------|---------15-14-15----------|
 |-------------------------|---------------------------|
 |-------------------------|---------------------------|

|
| Gtr I
| Q Q. E E E Q E E Q E E
 
 |-------------------------|---------------------------|
 |-------------------------|---------------------------|
 |-------------------------|--10-----10-10-12----12-12-|
 |-12\-----0---------------|---------------------------|
 |-12\-----0-------8--7--8-|---8------8--8-10----10-10-|
 |-12\-----0-------8--7--8-|---------------------------|

|
| Gtr II
| Q Q. E E E Q E E Q E E
 
 |-------------------------|---------------------------|
 |-------------------------|---------------------------|
 |-------------------------|---------------------------|
 |-12\-----0---------------|---8------8--8-10----10-10-|
 |-12\-----0-------8--7--8-|---8------8--8-10----10-10-|
 |-12\-----0-------8--7--8-|---8------8--8-10----10-10-|

[D5] E E E Q [Bb5A5] E E [Bb5] E +E E E E [C5] E E Q
 
 |-------------------------|---------------------------|
 |-13--11-----11-----------|---------------------------|
 |--------14------14-12-14-|-(14)-12----------12-14----|
 |-------------------------|---------15-14-15----------|
 |-------------------------|---------------------------|
 |-------------------------|---------------------------|

|
| Q Q. E E E Q E E Q E E
 
 |-------------------------|---------------------------|
 |-------------------------|---------------------------|
 |-------------------------|--10-----10-10-12----12-12-|
 |-12\-----0---------------|---------------------------|
 |-12\-----0-------8--7--8-|---8------8--8-10----10-10-|
 |-12\-----0-------8--7--8-|---------------------------|

|
| Q Q. E E E Q E E Q E E
 
 |-------------------------|---------------------------|
 |-------------------------|---------------------------|
 |-------------------------|---------------------------|
 |-12\-----0---------------|---8------8--8-10----10-10-|
 |-12\-----0-------8--7--8-|---8------8--8-10----10-10-|
 |-12\-----0-------8--7--8-|---8------8--8-10----10-10-|

[D5] E E E Q [Bb5A5] E E [Bb5] E +E E E E [C5] E E Q
 
 |-------------------------|---------------------------|
 |-13--11-----11-----------|---------------------------|
 |--------14------14-12-14-|-(14)-12----------12-14----|
 |-------------------------|---------15-14-15----------|
 |-------------------------|---------------------------|
 |-------------------------|---------------------------|

|
| Q Q. E E E Q E E Q E E
 
 |-------------------------|---------------------------|
 |-------------------------|---------------------------|
 |-------------------------|--10-----10-10-12----12-12-|
 |-12\-----0---------------|---------------------------|
 |-12\-----0-------8--7--8-|---8------8--8-10----10-10-|
 |-12\-----0-------8--7--8-|---------------------------|

|
| Q Q. E E E Q E E Q E E
 
 |-------------------------|---------------------------|
 |-------------------------|---------------------------|
 |-------------------------|---------------------------|
 |-12\-----0---------------|---8------8--8-10----10-10-|
 |-12\-----0-------8--7--8-|---8------8--8-10----10-10-|
 |-12\-----0-------8--7--8-|---8------8--8-10----10-10-|

[D5] E E E Q [Bb5A5] E E [Bb5] E +E E E E [C5] E E Q [D5] H H
 
 |-------------------------|------------------12-12----|-13\------------*|
 |-13--11-----11--13-11-13-|-(13)-15-13-11-15----------|----------------*|
 |--------14---------------|---------------------------|----------------*|
 |-------------------------|---------------------------|----------------*|
 |-------------------------|---------------------------|----------------*|
 |-------------------------|---------------------------|----------------*|

|
| Q Q. E E E Q E E Q E E E E Q Q Q
 
 |-------------------------|---------------------------|----------------*|
 |-------------------------|---------------------------|----------------*|
 |-------------------------|--10-----10-10-12----12-12-|--7--7-7--------*|
 |-12\-----0---------------|---------------------------|--7--7-7--0-----*|
 |-12\-----0-------8--7--8-|---8------8--8-10----10-10-|--5--5-5--0-----*|
 |-12\-----0-------8--7--8-|---------------------------|----------0-----*|

|
| Q Q. E E E Q E E Q E E E E Q Q Q
 
 |-------------------------|---------------------------|----------------*|
 |-------------------------|---------------------------|----------------*|
 |-------------------------|---------------------------|--7--7-7--------*|
 |-12\-----0---------------|---8------8--8-10----10-10-|--7--7-7--0-----*|
 |-12\-----0-------8--7--8-|---8------8--8-10----10-10-|--5--5-5--0-----*|
 |-12\-----0-------8--7--8-|---8------8--8-10----10-10-|----------0-----*|

Duration Legend
 
 ---------------
 W - whole; H - half; Q - quarter; E - 8th; S - 16th; T - 32nd; X - 64th; a - acciaccatura

+ - note tied to previous; . - note dotted; .. - note double dotted
Uncapitalized letters represent notes that are staccato (1/2 duration)
Irregular groupings are notated above the duration line
Duration letters will always appear directly above the note/fret number it represents the
duration for. Duration letters with no fret number below them represent rests. Multi-
bar rests are notated in the form Wxn, where n is the number of bars to rest for. Low
melody durations appear below the staff
Tablature Legend
 
 ----------------

h - hammer-on
p - pull-off
b - bend
pb - pre-bend
r - bend release (if no number after the r, then release immediately)
/\ - slide into or out of (from/to "nowhere")
s - legato slide
S - shift slide
- natural harmonic
(n) - artificial harmonic
n(n) - tapped harmonic
~ - vibrato
tr - trill
T - tap
TP - trem. picking
PM - palm muting
\n/ - tremolo bar dip; n = amount to dip
\n - tremolo bar down
n/ - tremolo bar up
/n\ - tremolo bar inverted dip
= - hold bend; also acts as connecting device for hammers/pulls
- volume swell (louder/softer)
x - on rhythm slash represents muted slash
o - on rhythm slash represents single note slash
Misc Legend
 
 -----------

| - bar
|| - double bar
||o - repeat start
o|| - repeat end
*| - double bar (ending)
: - bar (freetime)
$ - Segno
& - Coda
Tempo markers - = BPM(8/16=s8/s16), where s8 = swing 8ths, s16 = swing 16ths
***************************************************************************************
* Generated using Power Tab Editor by Brad Larsen - http://powertab.guitarnetwork.org *
***************************************************************************************

Important: The song above is NOT stored on the Chordie server. The original song is hosted at www.guitartabs.cc. Chordie works as a search engine and provides on-the-fly formatting. Chordie does not index songs against artists'/composers' will. To remove this song please click here.

Text color:
Chord color:
Chord grids: 
Font size:    
Page size: 

A5 B Bb5 C5 D5 Db5 Dsus2 E Eb5 Em Esus4 F
Rate #1 of 2 versions

Login - add to songbook

SHARE PAGE  




You need to log in to post comments