Guitar Tabs, Chords and Lyrics
Update 25:10. 13:00. Site is back up running again. Songbooks are recovered. Woring on getting search back up..


Tsuki no Uta  GACKT

This one is for all the people who want the chord part and can't afford to get guitar pro.
standard tuning
intro:
 
 e|---------------------------------0-----------0-----------2--3--------------------|
 B|-3--------3---1--0-0-----------------------------3-------2--2---3----------------|
 G|-----0---------------2------0----------0----0-------5-----------------0---------|
 D|----2-----0--------------0-----------4-----------------------------4-------------|
 A|-3---------------2---------------3-----------------------------------------------|
 E|---------------------------------------------------------------------------------|
 e|---------------------------------0-----------0-----------------------------------|
 B|-3--------3---1--0-0-----------------------------3-------------------------------|
 G|-----0---------------2------0----------0----0-------5----------0----------0-----|
 D|----2-----0--------------0-----------4------------------------4---4------4-------|
 A|-3---------------2---------------3--------------------------2------2---2---------|
 E|----------------------------------------------------------0----------0-----------|

Verse:
 
 e|----------------------------------------------------------|
 B|-----------5--------------5---------------3---------------|
 G|----4---4---4------4---4---4-------0---0---0-------------|
 D|---5---5----------5---5-----------4---4-------4-----------|
 A|-3--------------3---------------2-------------------------|
 E|----------------------------------------------------------| x4

Prechorus:
 
 e|-----------0-----------------0---------------0----------------0---------------0--|
 B|-------0--------------0---------------0---------------0-----------------0--------|
 G|----9---9--------11-----11-------12-----12-------11------11----------9----9-----|
 D|-10------------12--------------14--------------12-----------------10-------------|
 A|---------------------------------------------------------------------------------|
 E|---------------------------------------------------------------------------------|
 e|---------------0----0--------------|
 B|--------0-----------0--------------|
 G|----11-----11-------9--------------|
 D|-12-----------------10-------------|
 A|-----------------------------------|
 E|-----------------------------------|

for the chorus i only learned the chords so here:
Chorus:
G Bm Am Em x3
and then
[G] [Bm] [Am]  
bridge:
[Em] [D6] [CM7] [D6] [CM7]  
and then repeat all the above for the rest of the song else for the rest of the song. now the chords.
( Tab from: http://www.guitartabs.cc/tabs/g/gackt/tsuki_no_uta_tab.html )
[CM7]kagayaita mass[Bm7]hiro na T shatsu
[CM7]mizu shibuki ni u[Bm7]kabu niji
[CM7]bonyari to mitsu[Bm7]meteru sora o
[CM7]ikutsu mono kaze [Bm7]ga asobu
[CM7]nannimo[D6]nai koto ga[Em] futari d[D6]ake no shi[CM7]awase [D6]datta[CM7]
[G]dare yori mo fuka[Bm7]ku kokoro [Am7]made oborete[Em7]
[G]ima mo kono basho d[Bm7]e kimi da[Am7]ke o mitsumete[Em7]
ni[G]do to modorana[Bm7]i yume [Am7]naraba kowashite[Em7]
[G]wasurarenaku[Bm7]te mou ichi[Am7]do aitai
[CM7]shikirou [Bm7]kasanete
[CM7]kimi no kage, hiro[Bm7]iatsume
[CM7]tokei [D6]no hari o[Em] tometa [D6]mama de ma[CM7]chitsuzukeru
(then use the bridge twice here)
[G]nemu[D6]renai yoru [Em]mo, ta[D6]meiki no[CM7] asa [Bm7]mo[Em7] [D6]
[G]kimi [D6]no dai[Em]suki na tsuki [D]no [CM7]u [D6]ta [Em]o[D6] [CM7] [D6]
(then use the bridge again)
[G]itsu kara ka too[Bm7]ku, karada [Am7]made hanarete[Em7]
[G]ima wa kono basho [Bm7]ni boku da[Am7]ke o nokoshite[Em7]
zu[G]tto kawaranai[Bm7] futari [Am7]da to shinjita[Em7]
a[G]no koro no you ni [Bm7]mou ichi[Am7]do, aishita
Outro:
 
 e|---------------------------------0-----------0-----------2--3--------------------|
 B|-3--------3---1--0-0-----------------------------3-------2--2---3----------------|
 G|-----0---------------2------0----------0----0-------5-----------------0---------|
 D|----2-----0--------------0-----------4-----------------------------4-------------|
 A|-3---------------2---------------3-----------------------------------------------|
 E|---------------------------------------------------------------------------------|
 e|---------------------------------0-----------0-----------------------------------|
 B|-3--------3---1--0-0-----------------------------3-------------------------------|
 G|-----0---------------2------0----------0----0-------5---------------------------|
 D|----2-----0--------------0-----------4-------------------------------------------|
 A|-3---------------2---------------3--------------------------2--2--2---2---2--2---|
 E|----------------------------------------------------------0--0---0--0---0--0-----|

and end on an Em strum. and that's all.... enjoy

Important: The song above is NOT stored on the Chordie server. The original song is hosted at www.guitartabs.cc. Chordie works as a search engine and provides on-the-fly formatting. Chordie does not index songs against artists'/composers' will. To remove this song please click here.

Text color:
Chord color:
Chord grids: 
Font size:    
Page size: 

Am Am7 Bm Bm7 Cm7 D D6 Em Em7 G
Rate #1 of 4 versions

Jango Player

Login - add to songbook

SHARE PAGE  




You need to log in to post comments