Guitar Tabs, Chords and Lyrics
Login is temporarily disabled for some users. Do not panic. Will be back in an hour or two. DO NOT REREGISTER!!


Bridges  The Gamits

 
 -----------------------------------------------------------------------------

Bridges ? The Gamits
 
 -----------------------------------------------------------------------------

Tabbed by: Seth Anderson
Email: andersos@aero.und.edu
Tuning: Standard / = slide up
\ = slide down
Chords:
[C] [Fmaj7] [G] [F] [E] [Fm]  
 
 e|--X--|--0--|--3--|--1--|--0--|--1--|
 B|--1--|--1--|--0--|--1--|--0--|--1--|
 G|--0--|--2--|--0--|--2--|--1--|--1--|
 D|--2--|--3--|--0--|--3--|--2--|--3--|
 A|--3--|--X--|--2--|--X--|--2--|--X--|
 E|--X--|--X--|--3--|--X--|--0--|--X--|

(Guitar 1&2)
[C] [C] Lik[C]e an old man on [C]his way
 
 e|-------------------------------------------------------------------------|
 B|--------1----------------1----------------1---------------1--------------|
 G|------0-----0---0------0-----0---0------0-----0---0-----0-----0---0------|
 D|----2---------2------2---------2------2---------2-----2---------2--------|
 A|--3-------3--------3-------3--------3-------3-------3-------3------------|
 E|-------------------------------------------------------------------------|

to[C] the grave I nev[C]er stay out l[Fmaj7]ate [Fmaj7] I?m in too much
 
 e|------------------------------------------0---------------0--------------|
 B|--------1---------------1---------------1-----1---1-----1-----1---1------|
 G|------0-----0---0-----0-----0---0-----2---------2-----2---------2--------|
 D|----2---------2-----2---------2-----3-------3-------3-------3------------|
 A|--3-------3-------3-------3----------------------------------------------|
 E|-------------------------------------------------------------------------|

pa[C]in. [C] Darl[C]in I can?t walk [C]that fast
 
 e|-------------------------------------------------------------------------|
 B|--------1---------------1-------------------1---------------1------------|
 G|------0-----0---0-----0-----0---0---------0-----0---0-----0-----0---0----|
 D|----2---------2-----2---------2---------2---------2-----2---------2------|
 A|--3-------3-------3-------3-----------3-------3-------3-------3----------|
 E|-------------------------------------------------------------------------|

when[C] you see me comi[C]n please don?t laug[Fmaj7]h [Fmaj7] on the broken
 
 e|-------------------------------------------0---------------0-------------|
 B|--------1---------------1----------------1-----1---1-----1-----1---1-----|
 G|------0-----0---0-----0-----0---0------2---------2-----2---------2-------|
 D|----2---------2-----2---------2------3-------3-------3-------3-----------|
 A|--3-------3-------3-------3----------------------------------------------|
 E|-------------------------------------------------------------------------|

ba[C]ck. [C] Pl[G]ease forget I sa[F]id it I
 
 e|-------------------------------------------3---------------1-------------|
 B|--------1---------------1---------------------0---0------1-----1---1-----|
 G|------0-----0---0-----0-----0---0---------------0------2---------2-------|
 D|----2---------2-----2---------2----------0-----------3-------3-----------|
 A|--3-------3-------3-------3------------2---------------------------------|
 E|-------------------------------------3-------3---------------------------|

kn[C]ew that I?d regr[G]et it, [G] I?m not myself. [C]
 
 e|------------------------3---------------3--------------------------------|
 B|--------1-------------------0---0-----------0---0-----------1------------|
 G|------0-----0---0-------------0---------------0-----------0-----0---0----|
 D|----2---------2-------0---------------0-----------------2---------2------|
 A|--3-------3---------2---------------2-----------------3-------3----------|
 E|------------------3-------3-------3-------3------------------------------|

[C] Hu[C]ndred miles of b[C]ridges burned, w[C]ill you still be
 
 e|-------------------------------------------------------------------------|
 B|--------1---------------1---------------1---------------1----------------|
 G|------0-----0---0-----0-----0---0-----0-----0---0-----0-----0---0--------|
 D|----2---------2-----2---------2-----2---------2-----2---------2----------|
 A|--3-------3-------3-------3-------3-------3-------3-------3--------------|
 E|-------------------------------------------------------------------------|

he[C]re when I return[Fmaj7]? [Fmaj7] None of your concern.[C]
 
 e|------------------------0---------------0--------------------------------|
 B|--------1-------------1-----1---1-----1-----1---1--------------1---------|
 G|------0-----0---0---2---------2-----2---------2--------------0-----0---0-|
 D|----2---------2---3-------3-------3-------3----------------2---------2---|
 A|--3-------3----------------------------------------------3-------3-------|
 E|-------------------------------------------------------------------------|

[C] I?l[C]l invite you all[C] to my pit[C]y party
 
 e|-------------------------------------------------------------------------|
 B|--------1---------------1---------------1---------------1----------------|
 G|------0-----0---0-----0-----0---0-----0-----0---0-----0-----0---0--------|
 D|----2---------2-----2---------2-----2---------2-----2---------2----------|
 A|--3-------3-------3-------3-------3-------3-------3-------3--------------|
 E|-------------------------------------------------------------------------|

I?[C]m the host tonig[Fmaj7]ht [Fmaj7]servin up my pri[C]de.
 
 e|------------------------0---------------0--------------------------------|
 B|--------1-------------1-----1---1-----1-----1---1-------1----------------|
 G|------0-----0---0---2---------2-----2---------2-------0-----0---0--------|
 D|----2---------2---3-------3-------3-------3---------2---------2----------|
 A|--3-------3---------------------------------------3-------3--------------|
 E|-------------------------------------------------------------------------|

[C] P[G]lease forg[F]et I said it [C] I never even
 
 e|------------------------3---------------1--------------------------------|
 B|--------1-------------------0---0-----1-----1---1-------1----------------|
 G|------0-----0---0-------------0-----2---------2-------0-----0---0--------|
 D|----2---------2-------0-----------3-------3---------2---------2----------|
 A|--3-------3---------2-----------------------------3-------3--------------|
 E|------------------3-------3----------------------------------------------|

me[G]ant it, [G] I?m not myself.[C] [C]
 
 e|--------3---------------3------------------------------------------------|
 B|------------0---0-----------0---0-----------1---------------1------------|
 G|--------------0---------------0-----------0-----0---0-----0-----0---0----|
 D|------0---------------0-----------------2---------2-----2---------2------|
 A|----2---------------2-----------------3-------3-------3-------3----------|
 E|--3-------3-------3-------3----------------------------------------------|

(Strumming) ↓↓↑↑↓↑
[Fmaj7] What?s a year in l[C]ife? J[E]ust some made up ti[F]me
 
 e|--0----------------0-----------0------------------1----------------------|
 B|--1----------------1-----------0------------------1----------------------|
 G|--2----------------0-----------1------------------2----------------------|
 D|--3----------------2-----------2------------------3----------------------|
 A|--0----------------3-----------2------------------0----------------------|
 E|--X----------------X-----------0------------------X----------------------|

[C]All in all I th[G]ink I?ll be just fi[F]ne? [Fm] [C] (Pause)
 
 e|--0-------------3------------------1----------1-----------0--------------|
 B|--1-------------0------------------1----------1-----------1--------------|
 G|--0-------------0------------------2----------1-----------0--------------|
 D|--2-------------0------------------3----------3-----------2--------------|
 A|--3-------------2------------------0----------X-----------3--------------|
 E|--X-------------3------------------X----------X-----------X--------------|

(Guitar 1)
[C] [C] [C] [C]  
 
 e|-------------------------------------------------------------------------|
 B|--------1----------------1---------------1---------------1---------------|
 G|------0-----0---0------0-----0---0-----0-----0---0-----0-----0---0-------|
 D|----2---------2------2---------2-----2---------2-----2---------2---------|
 A|--3-------3--------3-------3-------3-------3-------3-------3-------------|
 E|-------------------------------------------------------------------------|

(Guitar 2)
 
 e|-------------------------------------------------------------------------|
 B|----------1---3-3-/-5--------------8---10--8-\-5-\-1---------------------|
 G|-------------------------------------------------------------------------|
 D|----------2---3-3-/-5--------------9---10--9-\-5-\-2---------------------|
 A|-------------------------------------------------------------------------|
 E|-------------------------------------------------------------------------|

(Guitar 1)
[Fmaj7] [Fmaj7] [C] [C]  
 
 e|--------0---------------0------------------------------------------------|
 B|------1-----1---1-----1-----1---1-------1---------------1----------------|
 G|----2---------2-----2---------2-------0-----0---0-----0-----0---0--------|
 D|--3-------3-------3-------3---------2---------2-----2---------2----------|
 A|----------------------------------3-------3-------3-------3--------------|
 E|-------------------------------------------------------------------------|

(Guitar 2)
 
 e|-------------------------------------------------------------------------|
 B|----------1---3-3-/-6--------------8---10--8-\-5-\-1---------------------|
 G|-------------------------------------------------------------------------|
 D|----------3---3-3-/-7--------------9---10--9-\-5-\-2---------------------|
 A|-------------------------------------------------------------------------|
 E|-------------------------------------------------------------------------|

Pl[G]ease forget I sai[F]d it I kn[C]ew that I?d regre[G]t it
 
 e|--------3---------------1-------------------------------3----------------|
 B|------------0---0-----1-----1---1-------1-------------------0---0--------|
 G|--------------0-----2---------2-------0-----0---0-------------0----------|
 D|------0-----------3-------3---------2---------2-------0------------------|
 A|----2-----------------------------3-------3---------2--------------------|
 E|--3-------3---------------------------------------3-------3--------------|

[G] I?m not myself [C] [C] I [C]don?t want to
 
 e|--------3----------------------------------------------------------------|
 B|------------0---0----------1---------------1---------------1-------------|
 G|--------------0----------0-----0---0-----0-----0---0-----0-----0---0-----|
 D|------0----------------2---------2-----2---------2-----2---------2-------|
 A|----2----------------3-------3-------3-------3-------3-------3-----------|
 E|--3-------3--------------------------------------------------------------|

di[C]e just yet, not[C] as long as I can[C] be your friend[Fmaj7]
 
 e|--------------------------------------------------------0----------------|
 B|--------1---------------1---------------1-------------1-----1---1--------|
 G|------0-----0---0-----0-----0---0-----0-----0---0---2---------2----------|
 D|----2---------2-----2---------2-----2---------2---3-------3--------------|
 A|--3-------3-------3-------3-------3-------3------------------------------|
 E|-------------------------------------------------------------------------|

[Fmaj7] I remember when. [C] [C] Pl[G]ease forget I
 
 e|--------0--------------------------------------------------3-------------|
 B|------1-----1---1----------1---------------1-------------------0---0-----|
 G|----2---------2----------0-----0---0-----0-----0---0-------------0-------|
 D|--3-------3------------2---------2-----2---------2-------0---------------|
 A|---------------------3-------3-------3-------3---------2-----------------|
 E|-----------------------------------------------------3-------3-----------|

sa[F]id it I kn[C]ew that I?d regre[G]t it I?m not myself
 
 e|--------1-------------------------------3---------------3----------------|
 B|------1-----1---1-------1-------------------0---0-----------0---0--------|
 G|----2---------2-------0-----0---0-------------0---------------0----------|
 D|--3-------3---------2---------2-------0---------------0------------------|
 A|------------------3-------3---------2---------------2--------------------|
 E|----------------------------------3-------3-------3-------3--------------|

(Strumming)
[F] [F] [Fm] I?m not myse[C]lf.
 
 e|--------1-1----------------1--------------------0------------------------|
 B|------1---1----------------1--------------------1------------------------|
 G|----2-----2----------------1--------------------0------------------------|
 D|--3-------3----------------3--------------------2------------------------|
 A|----------0----------------0--------------------3------------------------|
 E|----------X----------------X--------------------X------------------------|


Important: The song above is NOT stored on the Chordie server. The original song is hosted at www.guitartabs.cc. Chordie works as a search engine and provides on-the-fly formatting. Chordie does not index songs against artists'/composers' will. To remove this song please click here.

Text color:
Chord color:
Chord grids: 
Font size:    
Page size: 

C E F Fm Fmaj7 G
Rate #1 of 2 versions

Jango Player

Login - add to songbook

SHARE PAGE  




You need to log in to post comments