Guitar Tabs, Chords and Lyrics
Major upgrade!! After one year development the new version of Chordie is now online! Please give feedback.


Habanera  Georges Bizet

Date: Wed, 11 Mar 1998 09:30:23 +1000
From: Kevin Woodgate
Subject: c/classical/bizet_georges/habanera.tab
Habanera by Georges_Bizet
Transcribed by K Woodgate
Easy melody Version
[Dm]  
 
 e|---------|---------|-------|---------------|------------|---------------|
 B|---------|---------|-3--2--|-1--1--1--0----|------------|---------------|
 G|---------|---------|-------|-------------3-|-2--2--1--0-|----------0----|
 D|-----2---|-----2---|-------|---------------|------------|-3--2--3-----3-|
 A|---2---2-|---2---2-|-------|---------------|------------|---------------|
 E|-0-------|-0-------|-------|---------------|------------|---------------|

[Gm] [A] [Dm]  
 
 e|------------|---------------|------------|------------|-----------|
 B|------3--2--|-1--1--1--0----|------------|------------|------3--2-|
 G|------------|-------------3-|-2--2--0----|------------|-----------|
 D|-2----------|---------------|----------3-|-2--0--2--3-|-2--0------|
 A|------------|---------------|------------|------------|-----------|
 E|------------|---------------|------------|------------|-----------|

[Gm]  
 
 e|---------------|------------|---------------|------------|---------------|
 B|-1--1--1--0----|------------|---------------|------3--2--|-1--1--1--0----|
 G|-------------3-|-2--2--1--0-|----------0----|------------|-------------3-|
 D|---------------|------------|-3--2--3-----3-|-2----------|---------------|
 A|---------------|------------|---------------|------------|---------------|
 E|---------------|------------|---------------|------------|---------------|

[A] [D]  
 
 e|-------------|----------------||------------|------------|------------|
 B|-------------|----------------||------------|------------|------------|
 G|-2--2--0-----|----------------||----2-------|----2-------|----------0-|
 D|----------3--|-2--0--2--3--2--||-0-----0--2-|-4-----4--2-|-0--2--4----|
 A|-------------|----------------||------------|------------|------------|
 E|-------------|----------------||------------|------------|------------|

[Em] [A7]  
 
 e|------------------|------------|------------|------------|--------------------|
 B|-------------0----|----0-------|----0-------|------------|-0--0--0--0--2------|
 G|-2--2--2--2-----2-|-0----------|-0-----0----|-------0--2-|----------------2---|
 D|------------------|-------2--4-|----------4-|-2--4-------|--------------------|
 A|------------------|------------|------------|------------|--------------------|
 E|------------------|------------|------------|------------|--------------------|

[D] [Em]  
 
 e|------------|------------|------------|------------------|------------|
 B|-3----------|------------|------------|-------------3--2-|----0-------|
 G|----2-------|----2-------|----------0-|-2--2--2--2-------|-0----------|
 D|-------0--2-|-4-----4--2-|-0--2--4----|------------------|-------2--4-|
 A|------------|------------|------------|------------------|------------|
 E|------------|------------|------------|------------------|------------|

[A7] [D]  
 
 e|------------|------------|-------------2--0-|----------||
 B|------------|------------|-2--0-------------|-3-----3--||
 G|-0--2--0----|-------0--2-|-------1--2-------|----2-----||
 D|----------4-|-2--4-------|------------------|----------||
 A|------------|------------|------------------|----------||
 E|------------|------------|------------------|----------||


Important: The song above is NOT stored on the Chordie server. The original song is hosted at www.guitartabs.cc. Chordie works as a search engine and provides on-the-fly formatting. Chordie does not index songs against artists'/composers' will. To remove this song please click here.

Text color:
Chord color:
Chord grids: 
Font size:    
Page size: 

A A7 D Dm Em Gm
Rate #1 of 1 versions

Jango Player

Login - add to songbook

SHARE PAGE  




You need to log in to post comments