Guitar Tabs, Chords and Lyrics
Major upgrade!! After one year development the new version of Chordie is now online! Please give feedback.


Allison Road  Gin Blossoms

Date: Wed, 28 Jun 1995 15:12:32 -0700
From: kclamp@cctr.umkc.edu (Ken Lamp)
Allison Road
The Gin Blossoms
Tabbed by kclamp@cctr.umkc.edu (Ken Lamp)
Listen to the record to get the rhythm of the intro.
The solo chords may not be exactly over the correct notes.
[A]A [E]E [Asus4]Asus4 [A]A [Asus2]Asus2 (drums and 2nd guitar enter)
[A] [E] [Asus4] [A] [Asus2]  
[G]  
[A]I've lost my [E]mind[Asus4] [A] [Asus2]
[A]On what I'd [E]find[Asus4] [A] [Asus2]
[A]And all of [E]the pressure tha[Asus4]t I lef[A]t b[Asus2]ehind
On [A]allison [E]road[Asus4] [A] [Asus2]
[A]Fools in the [E]rain[Asus4] [A] [Asus2]
[A]If the su[E]n gets[Asus4] throug[A]h[Asus2]
[A]Fire's in the [E]heaven of the [Asus4]eyes I [A]kne[Asus2]w
On [A]allison [E]road[Asus4] [A] [Asus2]
[B]Dark clouds fall when the [D]moon was near
[A]Birds fly by AM in her [E]bedroom stare
[B]There was no tellin what [D]I might find
[A]I couldn't see I was [G]lost at the time
[A] [E] [Asus4] [A] [Asus2]  
[A] [E] [Asus4]On alli[A]son[Asus2] road
Yeah [A]I didn't [E]know I was [Asus4]lost at[A] th[Asus2]e time
On [A]allison [E]road[Asus4] [A] [Asus2]
So she [A]fills up her [E]sail[Asus4]s[A] [Asus2]
With my [A]wasted [E]breat[Asus4]h[A] [Asus2]
And [A]each one's more [E]wasted than the [Asus4]others [A]you[Asus2] can bet
On [A]allison [E]road[Asus4] [A] [Asus2]
Now [A]I can't [E]hide ([Asus4]on alli[A]son[Asus2] road)
So [A]why not [E]drive ([Asus4]on alli[A]son[Asus2] road)
I [A]know I want to [E]love her but I [Asus4]can't de[A]cid[Asus2]e
On [A]allison [E]road[Asus4] [A] [Asus2]
[B]I didn't know I was [D]lost at the time
[A]Eyes in the sun where the [E]road wasn't wide
[B]So I went looking for an [D]exit sign
[A]All I wanted to [G]find tonight
[A] [E] [Asus4] [A] [Asus2]  
[A] [E] [Asus4]On alli[A]son[Asus2] road
Yeah [A]I didn't [E]know I was [Asus4]lost at[A] th[Asus2]e time
On [A]allison [E]road[Asus4] [A] [Asus2]
Solo
[G] [D] [G] [D]  
 
 e-------------------------------------------------------|
 B-------------------------------------------------------|
 D---7--7-7-7-7-7p6------------------------------7-9-----|
 G-------------------9--7--5-5--5--7--9-7----7-9-----7-9-|
 A-------------------------------------------------------|
 E-------------------------------------------------------|

[G] [D] [A] [E] [Asus4] [A] [Asus2]  
 
 e-------------------------------------------------------|
 B------------/10-8-7---------------------2--------------|
 D--7-9--7-7/9--------9----------------2-----4-2---2-2---|
 G-----------------------------2-2---4-----------4-------|
 A-------------------------4-----------------------------|
 E-----------------------5-------------------------------|

[A] [E] [Asus4] [A] [Asus2] [A] [E] [Asus4] [A] [Asus2]  
 
 e------------5/7-7/5-5-5-----------12---------12-12-----|
 B-5-7-5h7-5--5/7-7/5-5-5-----12-14----14------------14--|
 D--------6----------------------------------------------|
 G-------------------------------------------------------|
 A-------------------------------------------------------|
 E-------------------------------------------------------|

[A] [E] [G]  
 
 e-14-12-------------------14-12----------------------------------|
 B-------14--12--14-15-14--14-12--10-10h12-12--10-10h12-10--------|
 D----------------------------------------------------------12-12-|
 G----------------------------------------------------------12-12-|
 A----------------------------------------------------------------|
 E----------------------------------------------------------------|

[A]I've lost my [E]mind[Asus4] [A] [Asus2]
If the [A]sun gets [E]throug[Asus4]h[A] [Asus2]
[A]Fire's in the [E]heaven of the [Asus4]eyes I [A]kne[Asus2]w
On [A]allison [E]road[Asus4] [A] [Asus2]
On [A]allison [E]road, [Asus4]On alli[A]son[Asus2] road
All[A]ison r[E]oad[Asus4] [A] [Asus2]
[A] [E] [Asus4] [A] [Asus2]  
Ken[A] Lamp,[E] Pharm[Asus4]D [A] [Asus2] ||==\\
School of Pharmacy ||==//
University of Missouri-Kansas City || \\//
//\\

Important: The song above is NOT stored on the Chordie server. The original song is hosted at www.guitartabs.cc. Chordie works as a search engine and provides on-the-fly formatting. Chordie does not index songs against artists'/composers' will. To remove this song please click here.

Text color:
Chord color:
Chord grids: 
Font size:    
Page size: 

A Asus2 Asus4 B D E G
Rate #0 of 4 versions

Jango Player

Login - add to songbook

SHARE PAGE  



You need to log in to post comments