Guitar Tabs, Chords and Lyrics
Update 25:10. 13:00. Site is back up running again. Songbooks are recovered. Woring on getting search back up..


Polmont on My Mind  Glasvegas

Tabbed by Daniel Bamsey (drbams@yahoo.co.uk) 20/09/2008
Polmont on my mind - Glasvegas
(Allan)
VERSION 1
(Standard Tuning: E A D G B E)
Chords used:
[Dm] [C] [Am] [G] [F]  
 
 -1-----0-----0--5---3---1---
 -3-----1-----1--5---3---1---
 -2-----0-----2--5---0---2---
 -0-----2-----2--7---0---3---
 -------3-----0--0---2---3---
 --------------------3---1---

A) Rhythm (James)
VERSE:
Fate, Fatal Fate.. An act of..
Dm C G C G Am G Am x 2
Mr Moonlight.. . I've Polmont...
F C G F G
CHORUS:(downstrokes)
C Am F G x2
Am Am G Am
MID-SECTION:
Mr Moonlight... I've Polmont.. I've Polmont.. I've Polmont..
Dm C G Dm Am F G
END:
Am
B) LEAD (Rab)
Verse: (TREMELO PICKING in 2nd verse - i.e fast up and down picking)
[Dm] [C] [G] [C] [G] [Am] [G] [Am] 
 
 ---------------/8----7----5------------- x2
 -6----5----3----------------------3---5-
 ----------------------------------------
 ----------------------------------------
 ----------------------------------------
 ----------------------------------------

[F] [C] [G] [F] [G]  
 
 ---------------------------------- x2
 -6----5----3--------------5-------
 ----------------5-5---7-------7---
 ----------------------------------
 ----------------------------------
 ----------------------------------

CHORUS: (TREMELO PICKING in 2nd chorus)
[C] [Am] [F] [G] 
 
 ---------------------------------------------------- x2
 /8---10---12--12---10-10~--8---6---5--5--3-3~-------
 ----------------------------------------------------
 ----------------------------------------------------
 ----------------------------------------------------
 ----------------------------------------------------

[Am] [Am] [G] [Am] 
 
 ---------------------------------------------------- 


Important: The song above is NOT stored on the Chordie server. The original song is hosted at www.guitartabs.cc. Chordie works as a search engine and provides on-the-fly formatting. Chordie does not index songs against artists'/composers' will. To remove this song please click here.

Text color:
Chord color:
Chord grids: 
Font size:    
Page size: 

Am C Dm F G
Rate #1 of 5 versions

Login - add to songbook

SHARE PAGE  



You need to log in to post comments