Guitar Tabs, Chords and Lyrics
Major upgrade!! After one year development the new version of Chordie is now online! Please give feedback.


I Stand Alone   Godsmack

 
 e[--------------------------------------------------
 B[--------------------------------------------------
 G[--------------------------------------------------
 D[-------5-5--------6-6-----6-----------------------
 A[-3-3-3------3-3-3-----3-3-------------------------
 D[--------------------------------------------------

 


 


 Verse (w/ distortion, x2)


 

 
 e[---------------------------------------------------
 B[---------------------------------------------------
 G[---------------------------------------------------
 D[-----------------4------------------4p1h3----------
 A[-3--3-3--3--3-3--4--3--3-3--3--3-3--4p1h3----------
 D[-5--5-5--5--5-5--4--5--5-5--5--5-5--4p1h3----------

 


 PM.. PM.. PM.. PM..


 End on (Let ring)


 

 
 e[-------------------------------------]--------------
 B[-------------------------------------]--------------
 G[-------------------------------------]--------------
 D[-----------------4-------------------]--------------
 A[-3--3-3--3--3-3--4--3--3-3--3--3-3---]-4------------
 D[-5--5-5--5--5-5--4--5--5-5--5--5-5---]-6------------

 


 PM.. PM.. PM.. PM..


 


 Chorus


 


 Verse


 


 Interlude


 

 
 e[--------------------------------------------------
 B[--------------------------------------------------
 G[--------------------------------------------------
 D[-3-----------6------------------------------------
 A[-3-----------6------------------------------------
 D[-3-----------6------------------------------------

 


 


 Chorus (Play riff twice, then add Interlude, then repeat)


 


 Bridge (Clean, x5) 2nd time 5th time (w/ distortion)


 

 
 e[-----------------------]----------------[-----------
 B[-----------------------]----------------[-----------
 G[-----------------------]----------------[-----------
 D[-------------3-----3---]----------------[-----------
 A[-5---------1-----1-----]-~*~*~*~*~*~----[----3------
 D[-3-------1-----1-------]-~*~*~*~*~*~----[----5------

 


 


 SOLO THING


 x12 Slide down, x8 Slide back up, x12 End on


 

 
 e[----------]---------------[--------------------]---------------
 B[----------]---------------[--------------------]---------------
 G[----5-----]------3--------[----5---------------]----6~~~~~-----
 D[----x-----]------x--------[----x---------------]----x----------
 A[----3-----]------1--------[----3---------------]----4~~~~~-----
 D[----------]---------------[--------------------]---------------


Important: The song above is NOT stored on the Chordie server. The original song is hosted at www.guitartabs.cc. Chordie works as a search engine and provides on-the-fly formatting. Chordie does not index songs against artists'/composers' will. To remove this song please click here.

This song is displayed as text-only. Transposing and tuning is only available for chordpro-songs.
Rate #1 of 1 versions

Jango Player

Login - add to songbook

SHARE PAGE  




You need to log in to post comments