Guitar Tabs, Chords and Lyrics
Login is temporarily disabled for some users. Do not panic. Will be back in an hour or two. DO NOT REREGISTER!!


From the Sky   Gojira

 
 ---------------------------------------------------------------------------|
 ---------------------------------------------------------------------------|
 ---------------------------------------------------------------------------|
 --2-2-2-2--5-5-5-5--4-4-4-4-4-4-4-4--7-7-7-7-7-7--5-5-5-5--4-4-4-4---------|
 --2-2-2-2--x-x-x-x--x-x-x-x-x-x-x-x--x-x-x-x-x-x--x-x-x-x--x-x-x-x---------|
 --0-0-0-0--3-3-3-3--2-2-2-2-2-2-2-2--5-5-5-5-5-5--3-3-3-3--2-2-2-2---------|
 ---------------------------------------------------------------------------|
 ---------------------------------------------------------------------------|
 ---------------------------------------------------------------------------|
 --2-2-2-2--5-5-5-5--4-4-4-4-4-4-4-4-------------------------------x4-------|
 --2-2-2-2--x-x-x-x--x-x-x-x-x-x-x-x----------------------------------------|
 --0-0-0-0--3-3-3-3--2-2-2-2-2-2-2-2---3h5--5--3--2--7----3--2--------------|
 PM - - - - - - - -
 ---------------------------------------------------------------------------|
 ---------------------------------------------------------------------------|
 ---------------------------------------------------------------------------|
 ---------------------------------------------------------------------------|
 ---------------------------------------------------------------------------|
 --0--2--3--0--2--3--0--2--3--0--2--3---------------------------------------|
 - - - - - - - - - - - -
 --------x--------x--------x--------x--------x--------x--------x--------x---|
 --------x--------x--------x--------x--------x--------x--------x--------x---|
 --------x--------x--------x--------x--------x--------x--------x--------x---|
 --------x--------x--------x--------x--------x--------x--------x--------x---|
 --------x--------x--------x--------x--------x--------x--------x--------x---|
 --0--0-----0--0-----0--0-----0--0-----0--0-----0--0-----0--0-----0--0------|

 


 A.H A.H A.H A.H A.H A.H A.H A.H


 


 

 
 ---------------------------------------------------------------------------|
 ---------------------------------------------------------------------------|
 -------5--------5---------5--------5--------5---------4--------4--------4--|
 -------5--------5---------5--------5--------5---------4--------4--------4--|
 -------3--------3---------3--------3--------3---------2--------2--------2--|
 -0--0-----0--0------0--0-----0--0-----0--0------0--0-----0--0-----0--0----0|
 - - - - - - - - - - - - - - - - -
 ---------------------------------------------------------------------------|
 ---------------------------------------------------------------------------|
 ----4--------4-------------------------------------------------------------|
 ----4--------4-------------------------------------------------------------|
 ----2--------2-------------------------------------------------------------|
 -0-----0--0----------------------------------------------------------------|

 


 [-] [-] [-]  


 


 

 
 ---------------------------------------------------------------------------|
 ---------------------------------------------------------------------------|
 ---------------------------------------------------------------------------|
 --2-2-2-2--5-5-5-5--4-4-4-4-4-4-4-4--7-7-7-7-7-7--5-5-5-5--4-4-4-4---------|
 --2-2-2-2--x-x-x-x--x-x-x-x-x-x-x-x--x-x-x-x-x-x--x-x-x-x--x-x-x-x---------|
 --0-0-0-0--3-3-3-3--2-2-2-2-2-2-2-2--5-5-5-5-5-5--3-3-3-3--2-2-2-2---------|
 ---------------------------------------------------------------------------|
 ---------------------------------------------------------------------------|
 ---------------------------------------------------------------------------|
 --2-2-2-2--5-5-5-5--4-4-4-4-4-4-4-4----------------------------------------|
 --2-2-2-2--x-x-x-x--x-x-x-x-x-x-x-x----------------------------------------|
 --0-0-0-0--3-3-3-3--2-2-2-2-2-2-2-2---3h5--5--3--2--7----3--2--------------|
 PM - - - - - - - -
 ---------------------------------------------------------------------------|
 ---------------------------------------------------------------------------|
 -------5--------5---------5--------5--------5---------4--------4--------4--|
 -------5--------5---------5--------5--------5---------4--------4--------4--|
 -------3--------3---------3--------3--------3---------2--------2--------2--|
 -0--0-----0--0------0--0-----0--0-----0--0------0--0-----0--0-----0--0----0|
 - - - - - - - - - - - - - - - - -
 ---------------------------------------------------------------------------|
 ---------------------------------------------------------------------------|
 ----4--------4-------------------------------------------------------------|
 ----4--------4-------------------------------------------------------------|
 ----2--------2-------------------------------------------------------------|
 -0-----0--0----------------------------------------------------------------|

 


 [-] [-] [-]  


 


 

 
 ---------------------------------------------------------------------------|
 ---------------------------------------------------------------------------|
 ---------------------------------------------------------------------------|
 --2-2-2-2--5-5-5-5--4-4-4-4-4-4-4-4--7-7-7-7-7-7--5-5-5-5--4-4-4-4---------|
 --2-2-2-2--x-x-x-x--x-x-x-x-x-x-x-x--x-x-x-x-x-x--x-x-x-x--x-x-x-x---------|
 --0-0-0-0--3-3-3-3--2-2-2-2-2-2-2-2--5-5-5-5-5-5--3-3-3-3--2-2-2-2---------|
 ---------------------------------------------------------------------------|
 ---------------------------------------------------------------------------|
 ---------------------------------------------------------------------------|
 --2-2-2-2--5-5-5-5--4-4-4-4-4-4-4-4----------------------------------------|
 --2-2-2-2--x-x-x-x--x-x-x-x-x-x-x-x----------------------------------------|
 --0-0-0-0--3-3-3-3--2-2-2-2-2-2-2-2---3h5--5--3--2--7----3--2--------------|
 PM - - - - - - - -
 ---------------------------------------------------------------------------|
 ---------------------------------------------------------------------------|
 ---------------------------------------------------------------------------|
 ---------------------------------------------------------------------------|
 -2--------2--2------7-7-7-6-6-6-5-5-5---2--------2--2-----7-7-7-6-6-6-5-5-5|
 -1--0--0--1--1---0----------------------1--0--0--1--1--0-------------------|
 - - - - - - - - - - - - - - - - - - - - - - - -
 ---------------------------------------------------------------------------|
 ---------------------------------------------------------------------------|
 ---------------------------------------------------------------------------|
 ---------------------------------------------------------------------------|
 -2--------2--2------7-7-7-6-6-6-5-5-5--2--------2--2----7-7-7-6-6-6-5-5-5-7|
 -1--0--0--1--1---0---------------------1--0--0--1--1--0--------------------|
 - - - - - - - - - - - - - - - - - - - - - - - - -
 -----------------------------------------------------------------------------|
 -----------------------------------------------------------------------------|
 -----------------------------------------------------------------------------|
 -----------------------------------------------------------------------------|
 -7-7-6-6-6-5-5-5--7-7-7-6-6-6-5-5-5--6-6-6-5-5-5-4-4-4--2--------2--2----7-7-|
 --------------------------------------------------------1--0--0--1--1--0-----|
 - - - - - - - - - - - - - - - - - - - - - - - - - - - - - - -
 -----------------------------------------------------------------------------|
 -----------------------------------------------------------------------------|
 -----------------------------------------------------------------------------|
 -----------------------------------------------------------------------------|
 -7-6-6-6-5-5-5--2--------2--2-----7-7-7-6-6-6-5-5-5--2--------2--2-----7-7-7-|
 ----------------1--0--0--1--1--0---------------------1--0--0--1--1--0--------|
 - - - - - - - - - - - - - - - - - - - - - - - - -
 -----------------------------------------------------------------------------|
 -----------------------------------------------------------------------------|
 -----------------------------------------------------------------------------|
 ----------------------9--9--9---9--9--9--9-----------------------------------|
 -6-6-6-5-5-5---8--8---8--8--8---8--8--8--8--2--------2--2----7-7-7-6-6-6-5-5-|
 ---------------7--7---7--7--7---7--7--7--7--1--0--0--1--1--0-----------------|
 - - - - - - - - - - - - - - - - -
 ---------------------------------------------------------------------------|
 ---------------------------------------------------------------------------|
 ---------------------------------------------------------------------------|
 ---------------------------------------------------------------------------|
 -5--2--------2--2------7-7-7-6-6-6-5-5-5--2-----2--2-----7-7-7-6-6-6-5-5-5-|
 ----1--0--0--1--1---0---------------------1--0--1--1--0--------------------|
 - - - - - - - - - - - - - - - - - - - - - - - -
 ---------------------------------------------------------------------------|
 ---------------------------------------------------------------------------|
 ---------------------------------------------------------------------------|
 -----------9--9--9--9-9----------------------------------------------------|
 -8--8--8---8--8--8--8-8----------------------------------------------------|
 -7--7--7---7--7--7--7-7----------------------------------------------------|
 ---------------------------------------------------------------------------|
 ---------------------------------------------------------------------------|
 -------5--------5---------5--------5--------5---------4--------4--------4--|
 -------5--------5---------5--------5--------5---------4--------4--------4--|
 -------3--------3---------3--------3--------3---------2--------2--------2--|
 -0--0-----0--0------0--0-----0--0-----0--0------0--0-----0--0-----0--0----0|
 - - - - - - - - - - - - - - - - -
 ---------------------------------------------------------------------------|
 ---------------------------------------------------------------------------|
 ----4--------4-------------------------------------------------------------|
 ----4--------4-------------------------------------------------------------|
 ----2--------2-------------------------------------------------------------|
 -0-----0--0----------------------------------------------------------------|

 


 [-] [-] [-]  


 


 

 
 -----------------------------------------------------------------------------|
 -----------------------------------------------------------------------------|
 --5-5-5-5-5-5-5-5-5-5-5-5--4-4-4-4-4-4-4-4-4-4-4-4---------------------------|
 --x-x-x-x-x-x-x-x-x-x-x-x--x-x-x-x-x-x-x-x-x-x-x-x--2-2-2-2-2-2-2-2-2-2-2-2--|
 --3-3-3-3-3-3-3-3-3-3-3-3--2-2-2-2-2-2-2-2-2-2-2-2--2-2-2-2-2-2-2-2-2-2-2-2--|
 ----------------------------------------------------0-0-0-0-0-0-0-0-0-0-0-0--|
 ---------------------------------------------------------------------------|
 ---------------------------------------------------------------------------|
 ---------------------------------------------------------------------------|
 -2-2-2-2-2-2-2-2-2--5-5-5-5-5-5-5-5-5-5-5--3-3-3-3-3-3-3-3-3--2-2-2-2-2-2-2|
 -2-2-2-2-2-2-2-2-2--x-x-x-x-x-x-x-x-x-x-x--x-x-x-x-x-x-x-x-x--2-2-2-2-2-2-2|
 -0-0-0-0-0-0-0-0-0--3-3-3-3-3-3-3-3-3-3-3--1-1-1-1-1-1-1-1-1--0-0-0-0-0-0-0|
 -----------------------------------------------------------------------------|
 -----------------------------------------------------------------------------|
 -----------------------------------------------------------------------------|
 -----3-----3-----3-----3------3------3------3------3------2------2-----2-----|
 ---2-----2-----2-----2------2------2------2------2------2------2-----2-----2-|
 -3-----3-----3-----3------1------1------1------1------0------0-----0-----0---|
 -----------------------------------------------------------------------------|
 -----------------------------------------------------------------------------|
 -----------------------------------------------------------------------------|
 --2------3------3-----3-----3------3-----3------3---5/3/2------3-----3-----3-|
 -------2-----2------2-----2------2-----2------2--------------2-----2-----2---|
 -----1-----1------1-----1------3-----3-----3---------------1-----1-----1-----|
 -------------------------------------|--------------------------------------|
 -------------------------------------|--------------------------------------|
 -------------------------------------|--------------------------------------|
 -5/3/2-----2-----2------2-------2----|--------------------------------------|
 ---------2-----2------2------2-------|--------------------------------------|
 -------0-----0-----0-------0---------|--------------------------------------|
 ---------------------------------------------------------------------------|
 ---------------------------------------------------------------------------|
 ---------------------------------------------------------------------------|
 ----------------------------------------------------------------------3-3-3|
 ----------------------------------------------2-2-2--------2-2-2-3-3--x-x-x|
 -0-0-0-0-0-0-0-0-0-0-0-0-0--3-3-3-3-3-3-3-3-3--------3-3-3------------1-1-1|
 ---------------------------------------------------------------------------|
 ---------------------------------------------------------------------------|
 ------------5-5-5-5--7-7-7-7-------------------9-9-9-9-9-9-----------------|
 -3-3-3-3-3--x-x-x-x--x-x-x-x--2-2-2-2-2-2-2-2--x-x-x-x-x-x--2-2-2-2-2-2-2-2|
 -x-x-x-x-x--3-3-3-3--5-5-5-5--2-2-2-2-2-2-2-2--7-7-7-7-7-7--2-2-2-2-2-2-2-2|
 -1-1-1-1-1--------------------0-0-0-0-0-0-0-0---------------0-0-0-0-0-0-0-0|
 ---------------------------------------------------------------------------|
 ---------------------------------------------------------------------------|
 --7--7--7--7--7--7---------------------------------------------------------|
 --x--x--x--x--x--x---------------------------------------------------------|
 --5--5--5--5--5--5---------------------------------------------------------|
 ---------------------------------------------------------------------------|
 ---------------------------------------------------------------------------|
 ---------------------------------------------------------------------------|
 ---------------------------------------------------------------------------|
 --2-2-2-2--5-5-5-5--4-4-4-4-4-4-4-4--7-7-7-7-7-7--5-5-5-5--4-4-4-4---------|
 --2-2-2-2--x-x-x-x--x-x-x-x-x-x-x-x--x-x-x-x-x-x--x-x-x-x--x-x-x-x---------|
 --0-0-0-0--3-3-3-3--2-2-2-2-2-2-2-2--5-5-5-5-5-5--3-3-3-3--2-2-2-2---------|
 -----------------------------------------------------------------------------|
 -----------------------------------------------------------------------------|
 -----------------------------------------------------------------------------|
 --2-2-2-2--5-5-5-5--4-4-4-4-4-4-4-4------------------------------------------|
 --2-2-2-2--x-x-x-x--x-x-x-x-x-x-x-x------------------------------------------|
 --0-0-0-0--3-3-3-3--2-2-2-2-2-2-2-2---3h5--5--3--2--7----3--2----------------|
 PM - - - - - - - -


Important: The song above is NOT stored on the Chordie server. The original song is hosted at www.guitartabs.cc. Chordie works as a search engine and provides on-the-fly formatting. Chordie does not index songs against artists'/composers' will. To remove this song please click here.

This song is displayed as text-only. Transposing and tuning is only available for chordpro-songs.
Rate #1 of 2 versions

Jango Player

Login - add to songbook

SHARE PAGE  




You need to log in to post comments