Guitar Tabs, Chords and Lyrics
Login is temporarily disabled for some users. Do not panic. Will be back in an hour or two. DO NOT REREGISTER!!


Space Time  Gojira

Tabbed by: Arkanis
Email: lerror_systeml@hotmail.com
[A]  
 
 ---------------------------------14b------------------------------|
 -15b--------------------------------------------------------------|
 ------------------------------------------------------------------|
 ---------000--0--0--------------------000--0--0-------------------|
 ---------000--0--0---1-2-0--3\0-------000--0--0--1-2-0--3\0-------|
 ---------000--0--0---1-2-0--3\0-------000--0--0--1-2-0--3\0-------|

PM ... . . ... . .
 
 -14b------------------------------16b-------------------------||
 -------------------------------------------------------------.||
 --------------------------------------------------------------||
 ---------000--0--0--------------------000--0--0--00-0-00-0----|| x4
 ---------000--0--0---1-2-0--3\0-------000--0--0--00-0-00-0---.||
 ---------000--0--0---1-2-0--3\0-------000--0--0--00-0-00-0----||

PM ... . . ... . . .. . .. .
 
 --------------------------|
 --------------------------|
 --------------------------|
 ---8--7--5---0-0-0---8\---|
 ---x--x--x---0-0-0---x----|
 ---6--5--3---0-0-0---6\---|

PM. . .
[B]  
 
 ----------------------------------------------------------------------------|
 ----------------------------------------------------------------------------|
 ----00000000000000000000000000000000000000000000000000000000000000000000----|
 -0--22222222222222255555554444411111111115555222225555555544441111111111--0-|
 -0------------------------------------------------------------------------0-|
 -0------------------------------------------------------------------------0-|

. .
 
 ---------------------------------------------------------------------------|
 ---------------------------------------------------------------------------|
 --00000000000000000000000000000000000000000000000000000000000000000000-----|
 --22222222222222255555554444411111111115555222225555555544441111111111-----|
 ---------------------------------------------------------------------------|
 ---------------------------------------------------------------------------|
 -15b-----------------------------------15b----------------------------------|
 -----------------------12b----------------------------------12b-------------|
 ----------------------------------------------------------------------------|
 -------------0-000---------------------------------0-000--------------------|
 -------------0-000---------------------------------0-000--------------------|
 -----2-1--3--0-000--------2-1-2-1-2-3------2-1--3--0-000--------2-1-2-1-2-3-|

. ... . ...
 
 -15b-----------------------------------15b---------------------------------||
 -----------------------12b------------------------------0--12b------------.||
 -------------------(0)----------------------------------0------------------||
 -------------0-000-(0)-----------------------------------------------------||
 -------------0-000--------------------------------------------------------.||
 -----2-1--3--0-000--------2-1-2-1-2-3-------0-0-0-00000--------2-1-2-1-2-3-||

. ... . . . .....
 
 ----------------------------------------------------------------------------|
 ----------------------------------------------------------------------------|
 ----------------------5-----------5-----5----------5-------------5----------|
 -2----2-2-2-2-2-2--3--5--7--3--7--5--7--5--7--3-7--5--4--3--5----5-7--3--7--|
 -2----2-2-2-2-2-2--3--3--7--3--7--3--7--3--7--3-7--3--4--3--5----3-7--3--7--|
 -0----0-0-0-0-0-0--1-----5--1--5-----5-----5--1-5-----2--1--3------5--1--5--|

PM . . . . . . . . . . . . . . . . . . . . .
 
 ----------------------------------||
 ----------------------------------||
 -5-5-----5------------------------||
 -5-5-7---5-7--3--7--4--3--5-------||
 -3-3-7---3-7--3--7--4--3--5-------||
 -----5-----5--1--5--2--1--3-------||

. . . . . . .
[C]  
guitarI:
 
 ----------------------------------------------------------------------------|
 ----------------------------------------------------------------------------|
 -5-----------7-----------9-----------9-----------5-----------7----------9---|
 -5--7--3--7--7--7--5--7--9--7--2--7--9--7--2--5--5--7--3--7--7--7-----7-9-7-|
 -3--7--3--7--5--7--5--7--7--7--2--7--7--7--2--5--3--7--3--7--5--7-----7-7-7-|
 ----5--1--5-----5--3--5-----5--0--5-----5--0--3-----5--1--5-----5-----5---5-|

. . . . . . . . . . . . . . . . . . . . . . . . .
 
 ----------------------||
 ---------------------.||
 -------9--------------||
 -2--7--9--7--2--5-----|| x5
 -2--7--7--7--2--5----.||
 -0--5-----5--0--3-----||

. . . . .
 
 ----------------------------------------------------------------------------|
 ----------------------------------------------------------------------------|
 -5-----------7-----------9-----------9-----------5-----------7----------9---|
 -5--7--3--7--7--7--5--7--9--7--2--7--9--7--2--5--5--7--3--7--7--7-----7-9-7-|
 -3--7--3--7--5--7--5--7--7--7--2--7--7--7--2--5--3--7--3--7--5--7-----7-7-7-|
 ----5--1--5-----5--3--5-----5--0--5-----5--0--3-----5--1--5-----5-----5---5-|

. . . . . . . . . . . . . . . . . . . . . . . . .
 
 ----------------------||
 ---------------------.||
 -------9--------------||
 -2--7--9--7--4--4--3--||
 -2--7--7--7--4--4--3-.||
 -0--5-----5--2--2--1--||

. . . .
guitarII:
 
 ---------------------------------------------0------------------------||
 ---------------------------------------------------3------3--1--3--0-.||
 ----2----2----2----2----2-----2-----2-----2------2------2-------------||
 -5----5----5----5----3-----3-----3-----3-------2------2---------------||x8
 ---------------------------------------------------------------------.||
 ----------------------------------------------------------------------||

guitarI and II:
 
 ---------------------------------------------------------------------||
 --------------------------------------------------------------------.||
 ---------------------------------------------------------------------||
 -----------------------------------------------------0-0-0-0-0-0-0-0-||
 --------3--0------------3--0-----------3--0----------0-0-0-0-0-0-0-0.||
 -222222-------1--222222------1-2222222------1-222222-0-0-0-0-0-0-0-0-||

...... ...... ....... ...... . . . . . . . .
 
 ---------------------------------------------------------||
 ---------------------------------------------------------||
 ---------------------------------------------------------||
 -2-2-2-2-2-2-2-2-2-2-2-4-3-5-2-2-2-2-2-2-2-2-2-2-2-4-3-5-||
 -2-2-2-2-2-2-2-2-2-2-2-4-3-5-2-2-2-2-2-2-2-2-2-2-2-4-3-5-||
 -0-0-0-0-0-0-0-0-0-0-0-2-1-3-0-0-0-0-0-0-0-0-0-0-0-2-1-3-||

. . . . . . . . . . . . . . . . . . . . . .
| / slide up
| \ slide down
| h hammer-on
| p pull-off
| ~ vibrato
| + harmonic
| x Mute note

Important: The song above is NOT stored on the Chordie server. The original song is hosted at www.guitartabs.cc. Chordie works as a search engine and provides on-the-fly formatting. Chordie does not index songs against artists'/composers' will. To remove this song please click here.

Text color:
Chord color:
Chord grids: 
Font size:    
Page size: 

A B C
Rate #3 of 3 versions

Jango Player

Login - add to songbook

SHARE PAGE  



You need to log in to post comments