Guitar Tabs, Chords and Lyrics
Login is temporarily disabled for some users. Do not panic. Will be back in an hour or two. DO NOT REREGISTER!!


I Can't Keep From Talking  Golden Smog

 
 -------------------------------------------------------------------------------

I CAN?T KEEP FROM TALKING - Golden Smog
 
 -------------------------------------------------------------------------------

Tabbed by: jvwald
Tuning: Standard
intro x2
 
 e|-------0---------------------0--------------------------0-----------------------2-3-2-|
 B|-------0---------------------0--------------------------0-----------------------3-3-3-|
 G|-------0-----------4-2-------0------------4-2-0-0-------0-----------4-2---------2-2-2-|
 D|-----0-2-2-0-0h2---2-4-----0-2--2-0-0h2---2-4-2-2/4\2p0-2-0h2-0h2---2-4-3-2-0---0-0-0-|
 A|-0h2---2---------2-----0h2---2----------2---------------2---------2-----------2-0-0-0-|
 E|-------0---------------------0--------------------------0-----------------------------|

[A]Hey ain't it great [G]for us to be al[D]ive
[A]I've been lying in wait f[G]or you to come outs[D]ide
[Em]I know you don't know me but [A]I know a lot about [D]you
[Em]You're the one who knows me [A]better than I [D]do[Fm]
intro
[A]When I get back home, I'm [G]gonna put your records [D]on
[A]I play them way too loud [G]and I'll sing a[D]long
[Em]I know all the words [A]to every [D]song
[Em]And I don't really care to[A]night you sang one [D]wrong[Fm]
intro (over lyrics)
And I, I can't keep from talking
I can't keep from talking about you
intro (over lyrics)
And I just wanted to thank you
Thank you for doing what you do
[Fm]I wanted to tell the [G]world a [D]little bit about myself
[Fm]Realize my [G]feelings and [D]put them on a shelf
[Em]Then jump out the window so [A]you'd all know what it's a[D]bout
[Em]'Cause I can't be there to [A]help you figure it [D]out[Fm]
intro (over lyrics)
And I, I can't keep from talking
I can't keep from talking about you
intro (over lyrics)
And I just wanted to thank you
Thank you for doing what you do
************************************
| / slide up
| \ slide down
| h hammer-on
| p pull-off
| ~ vibrato
| + harmonic
| x Mute note
| b Bend
| pb Pre-bend
| br Bend release
| pbr Pre-bend release
| brb Bend release bend
************************************

Important: The song above is NOT stored on the Chordie server. The original song is hosted at www.guitartabs.cc. Chordie works as a search engine and provides on-the-fly formatting. Chordie does not index songs against artists'/composers' will. To remove this song please click here.

Text color:
Chord color:
Chord grids: 
Font size:    
Page size: 

A D Em Fm G
Rate #1 of 3 versions

Login - add to songbook

SHARE PAGE  



You need to log in to post comments