Guitar Tabs, Chords and Lyrics
Major upgrade!! After one year development the new version of Chordie is now online! Please give feedback.


Here Is Gone   Goo Goo Dolls

 
 D[--0----0-0-0-0-0-0-0-|--0----0-0-0-0-0-0-0
 A[--5\---7-7-7-7-7-5-5-|--5\---7-7-7-7-7-5-5
 A[--0----0-0-0-0-0-0-0-|--0----0-0-0-0-0-0-0
 D[--0----0-0-0-0-0-0-0-|--0----0-0-0-0-0-0-0
 A[--5\---7-7-7-7-7-5-5-|--5\---7-7-7-7-7-5-5
 D[---------------------|--------------------
 D[--0-0-0-0-0-0-0--0-0-0-0-0-0-0-
 A[--0-0-0-0-0-0-0--0-0-0-0-0-0-0-
 A[--0-0-0-0-0-0-0--0-0-0-0-0-0-0-
 D[--7-7-7-7-7-7-7--5-5-5-5-5-5-5-
 A[--7-7-7-7-7-7-7--5-5-5-5-5-5-5-
 D[--7-7-7-7-7-7-7--5-5-5-5-5-5-5-

 


 


 PRECHORUS:


 


 

 
 D[-0-0-0-0-0-0-0-0-0-0-0-0-0-0--0-0-0-0-0-0-0-0-0-0-0-0-0-0-
 A[-0-0-0-0-0-0-0-0-0-0-0-0-0-0--0-0-0-0-0-0-0-0-0-0-0-0-0-0-
 A[-0-0-0-0-0-0-0-0-0-0-0-0-0-0--0-0-0-0-0-0-0-0-0-0-0-0-0-0-
 D[-9-9-9-9-9-9-9-9-9-9-9-9-9-9--5-5-5-5-5-5-5-5-5-5-5-5-5-5-
 A[-9-9-9-9-9-9-9-9-9-9-9-9-9-9--5-5-5-5-5-5-5-5-5-5-5-5-5-5-
 D[-9-9-9-9-9-9-9-9-9-9-9-9-9-9--5-5-5-5-5-5-5-5-5-5-5-5-5-5-

 


 im not the on who broke you...........we've got to move you darlin'


 


 

 
 D[-0-0-0-0-0-0-0-0-0-0-0-0-0-0--0-0-0-0-0-0-0-0--0-0-0-0-0-
 A[-0-0-0-0-0-0-0-0-0-0-0-0-0-0--0-0-0-0-0-0-0-0--0-0-0-0-0-
 A[-0-0-0-0-0-0-0-0-0-0-0-0-0-0--0-0-0-0-0-0-0-0--0-0-0-0-0-
 D[-9-9-9-9-9-9-9-9-9-9-9-9-9-9--7-7-7-7-7-7-7-7--5-5-5-5-5-
 A[-9-9-9-9-9-9-9-9-9-9-9-9-9-9--7-7-7-7-7-7-7-7--5-5-5-5-5-
 D[-9-9-9-9-9-9-9-9-9-9-9-9-9-9--7-7-7-7-7-7-7-7--5-5-5-5-5-

 


 Ithought I lost you somewhere..but you were never really ever there at all..yeah


 


 CHORUS:


 


 

 
 D[-0-0-0-0-0-0-0-0-0-0----0-0-0-0-0-0--0-0-0-0-0-0--0-0-0-0-
 A[-0-0-0-0-0-0-0-0-0-0----9-9-9-9-9-9--0-0-0-0-0-0--0-0-0-0-
 A[-0-0-0-0-0-0-0-0-0-0----0-0-0-0-0-0--0-0-0-0-0-0--0-0-0-0-
 D[-0-0-0-0-0-0-0-0-0-0----0-0-0-0-0-0--7-7-7-7-7-7--5-5-5-5-
 A[-12-12-12-12-12-12-12---9-9-9-9-9-9--7-7-7-7-7-7--5-5-5-5-
 D[-12-12-12-12-12-12-12---9-9-9-9-9-9--7-7-7-7-7-7--5-5-5-5-

 


 want to get free.......talk to me....i can feel.. you fallin' (repeat x2)


 


 BRIDGE:


 


 

 
 D[-0-0-0-0-0-0-0-----0-0-0-0-0-0--0-0-0-0-0-0--0-0-0-0-0-0-
 A[-0-0-0-0-0-0-0-----0-0-0-0-0-0--0-0-0-0-0-0--0-0-0-0-0-0-
 A[-0-0-0-0-0-0-0-----0-0-0-0-0-0--0-0-0-0-0-0--0-0-0-0-0-0-
 D[-0-0-0-0-0-0-0-----5-5-5-5-5-5--9-9-9-9-9-9--7-7-7-7-7-7-
 A[-2-2-2-2-2-2-2-----5-5-5-5-5-5--9-9-9-9-9-9--7-7-7-7-7-7-
 D[-2-2-2-2-2-2-2-----5-5-5-5-5-5--9-9-9-9-9-9--7-7-7-7-7-7-

 


 And I dont need the fallout....


 


 

 
 D[-0-0-0-0-0-0-0-----0-0-0-0-0-0--0-0-0-0-0-0-0-0-0-0-0-0-
 A[-0-0-0-0-0-0-0-----0-0-0-0-0-0--0-0-0-0-0-0-0-0-0-0-0-0-
 A[-0-0-0-0-0-0-0-----0-0-0-0-0-0--0-0-0-0-0-0-0-0-0-0-0-0-
 D[-9-9-9-9-9-9-9-----7-7-7-7-7-7--5-5-5-5-5-5-5-5-5-5-5-5-
 A[-9-9-9-9-9-9-9-----7-7-7-7-7-7--5-5-5-5-5-5-5-5-5-5-5-5-
 D[-9-9-9-9-9-9-9-----7-7-7-7-7-7--5-5-5-5-5-5-5-5-5-5-5-5-


Important: The song above is NOT stored on the Chordie server. The original song is hosted at www.guitartabs.cc. Chordie works as a search engine and provides on-the-fly formatting. Chordie does not index songs against artists'/composers' will. To remove this song please click here.

This song is displayed as text-only. Transposing and tuning is only available for chordpro-songs.
Rate #1 of 12 versions

Jango Player

Login - add to songbook

SHARE PAGE  



You need to log in to post comments